Bass Tabs for Entersandman

Basgitaar

G|--------------------------------------1-----0-----0--1--0--------------------------------------1-----0-----0--1--0--
D|--3--3--------3--3--------3--3-----------3-----3-----------3--3--------3--3--------3--3-----------3-----3-----------
A|--------2--1--------2--1--------2--1-----------------------------2--1--------2--1--------2--1-----------------------
E|--------------------------------------------------------------------------------------------------------------------

G|-----------------------------------------------------------1-----0-----0--1--0--------------------------------------
D|--3--3--3--3--3--4-----3--3--3--3--3--4-----3--3--3--3--3-----3-----3-----------3--3--3--3--3--4-----3--3--3--3--3--
A|--------------------------------------------------------------------------------------------------------------------
E|--------------------------------------------------------------------------------------------------------------------

G|--1-----0-----0--1--0--------------------------------------------------------------------------------
D|-----3-----3-----------5--------5--------5--------5--------3--4--5--5--------5--5--------5--5--------
A|--------------------------4--3-----4--3-----4--3-----4--3--------------4--3--------4--3--------4--3--
E|-----------------------------------------------------------------------------------------------------

G|--------------------------------------0-----1-----4--1--------0-----0--1--1--------------------------------------
D|--3-----2-----------5--5--------3--3-----3-----3--------3--3-----3-----------3--3--------3--3--------3--3--------
A|-----3-----3--2--3--------4--3-----------------------------------------------------2--1--------2--1--------2--1--
E|-----------------------------------------------------------------------------------------------------------------

G|--1-----0-----0--1--0-----------------------------------------------------------1-----0-----0--1--0-----
D|-----3-----3-----------3--3--3--3--3--4-----3--3--3--3--3--4-----3--3--3--3--3-----3-----3-----------3--
A|--------------------------------------------------------------------------------------------------------
E|--------------------------------------------------------------------------------------------------------

G|-----------------------------------------------------------1-----0-----0--1--0--0--
D|--3--3--3--3--3--4-----3--3--3--3--3--4-----3--3--3--3--3-----3-----3--------------
A|-----------------------------------------------------------------------------------
E|-----------------------------------------------------------------------------------

G|--------------------------------------------------------------------------------------------------------
D|--------5--------5--------5--------3--4--5--5--------5--5-----------5--5--------3-----2-----2-----------
A|--4--3-----4--3-----5--4-----5--4--------------4--3--------4--3-----------4--3-----3-----3-----3--2--3--
E|--------------------------------------------------------------------------------------------------------

G|--------------------0-----1-----2--1-----------0-----0--1--1--------------------------------------
D|--5--5--------3--3-----3-----3-----------3--3-----3-----------3--3--------3--3--------3--3--------
A|--------4--3--------------------------------------------------------2--1--------2--1--------2--1--
E|--------------------------------------------------------------------------------------------------

G|--1-----0-----0--1--0--------------------------------------1-----0-----0--1--0-----
D|-----3-----3-----------3--3--------3--3--------3--3-----------3-----3-----------3--
A|-----------------------------2--1--------2--1--------2--1--------------------------
E|-----------------------------------------------------------------------------------

G|--------------------------------------------------
D|---------0/3------0/3------0/3-----3-----------3--
A|--------------------------------------------------
E|--------------------------------------------------

tabs and chords, guitar tabs, music transcription, music technology, deep learning, music information retrieval, transcribe into tabs & chords, chordify, music renditions, songsterr, reverbnation, tabulature, bollywood chords, ultimate guitar, yousician, guitar lessons, acoustic guitar, electric guitar, guitar tuner, 911 tabs