Bass Tabs for Engano Nacionales

Intro



  
Estamos enterradoas en siete pies de mierda  un gobierno corrupta y una gente pendeja
G|--------------------------------------------------------------------------------------------------
D|--------------------------------------------------------------------------------------------------
A|--0--0--0--0--8--8--8--8--7--7--7--7--------------0--0--0--0--8--8--8--8--7--7--7--7--------------
E|--------------------------------------7--7--7--7--------------------------------------7--7--7--7--
Peiensan que puedemos cambiar algo con un voto   Y eligier otro penedjo que nos va a robar todo
G|--------------------------------------------------------------------------------------------------
D|--------------------------------------------------------------------------------------------------
A|--0--0--0--0--8--8--8--8--7--7--7--7--------------0--0--0--0--8--8--8--8--7--7--7--7--------------
E|--------------------------------------7--7--7--7--------------------------------------7--7--7--7--
Chorus: Me vale verga que dices, no voy a escuchar no voy obedecer x2
G|-----------------------------------------------------------------------------------------------------------------
D|-----------------------------------------------------------------------------------------------------------------
A|-----------------------------------------------------------------------------------------------------------------
E|--0--0--0--0--0--0--0--0--10-10-10-10-10-10-10-10-9--9--9--9--9--9--9--9--9--9--9--9--9--8--8--8--8--7--7--7--7--

Me dicen que las cosas orita estan jodidas       Pero espera ya se va a reglar 
G|--------------------------------------------------------------------------------------------------
D|--------------------------------------------------------------------------------------------------
A|--0--0--0--0--8--8--8--8--7--7--7--7--------------0--0--0--0--8--8--8--8--7--7--7--7--------------
E|--------------------------------------7--7--7--7--------------------------------------7--7--7--7--
Ya te suenas como esos perros en la television              Creres que soy tan pendejo para eschuchar y acceptar?
G|--------------------------------------------------------------------------------------------------
D|--------------------------------------------------------------------------------------------------
A|--0--0--0--0--8--8--8--8--7--7--7--7--------------0--0--0--0--8--8--8--8--7--7--7--7--------------
E|--------------------------------------7--7--7--7--------------------------------------7--7--7--7--
Chorus
G|--------------------------------------------------------------------------------------------------
D|--------------------------------------------------------------------------------------------------
A|--------------------------------------------------------------------------------------------------
E|--0--0--0--0--0--0--0--0--10-10-10-10-10-10-10-10-9--9--9--9--9--9--9--9--8--8--8--8--7--7--7--7--
Ya eschuche tu histori ahraa esucha mia           Esta sistema no hace nada para me namas me destruye la vida 
G|--------------------------------------------------------------------------------------------------
D|--------------------------------------------------------------------------------------------------
A|--0--0--0--0--8--8--8--8--7--7--7--7--------------0--0--0--0--8--8--8--8--7--7--7--7--------------
E|--------------------------------------7--7--7--7--------------------------------------7--7--7--7--
Que hacen los miles que se quedan con nada en la bolsa        Los ignoramos y los mandamos a una casa en la pobresa  
G|--------------------------------------------------------------------------------------------------
D|--------------------------------------------------------------------------------------------------
A|--0--0--0--0--8--8--8--8--7--7--7--7--------------0--0--0--0--8--8--8--8--7--7--7--7--------------
E|--------------------------------------7--7--7--7--------------------------------------7--7--7--7--
Que ahi se mueren solos y desconocidos!
G|--------------------------------------------------
D|--------------------------------------------------
A|--0--0--0--0--8--8--8--8--7--7--7--7--------------
E|--------------------------------------7--7--7--7--
Chorus
G|--
D|--
A|--
E|--






Paste any tab in acousterr's tab maker and we'll play it !!!
Now supports capo and sound effects for vibrato/pull-off/hammer/bends/mutes etc !!! Checkout help section
tabs and chords, guitar tabs, music contests, music covers, songsterr, reverbnation, renditions, tabulature, bollywood chords, ultimate guitar, yousician, guitar lessons, torrins, fender, gibson, acoustic guitar, electric guitar, youtube covers, gootar, guitar tuner, A-Z tabs, 911 tabs