Guitar Tabs for Encefalo

(/) Slide Up  (\) Slide Down  (h) Hammer On  (p) Pull Off  (b) Bend (r) Release (v) Vibrato (x) Muted

Tabs for Song : 
BPM : 200

SonE---|--------
E|--------------------------------------------------
B|--0--0--0--0--0--0--0--0--0--0--0--0--------------
G|--7--7--7--7--7--7--7--7--7--7--7--7--9--9--9--9--
D|--------------------------------------------------
A|--7--7--7--7--7--7--7--7--7--7--7--7--8--8--8--8--
E|--0--0--0--0--0--0--0--0--0--0--0--0--0--0--0--0--


E|-----------------------------
B|--0--0--0--0--10-------------
G|--7--7--7--7-----10--9/10\9--
D|-----------------------------
A|--7--7--7--7-----------------
E|--0--0--0--0--8--8---8/------


E|--------------------------------
B|--0--0--0--0--------------------
G|--7--7--7--7--12-12-10--9/10\9--
D|--------------------------------
A|--7--7--7--7--------------------
E|--0--0--0--0--10-10-8---8/------

Song lyrics here
E|-----------------------------------------------
B|-----------------------------------------------
G|--12-12-12----7--7--7-----4--4--4-----4--4--4--
D|-----------------------------------------------
A|--------------------------2--2--2-----2--2--2--
E|--12-12-12----7--7--7-----0--0--0-----0--0--0--

E|-----------------------------------------------
B|-----------------------------------------------
G|--12-12-12----7--7--7-----11-11-11----11-11-11-
D|-----------------------------------------------
A|-----------------------------------------------
E|--12-12-12----7--7--7-----10-10-10----10-10-10-

E|-----------------------------------------------
B|-----------------------------------------------
G|--12-12-12----9--9--9-----7--7--7-----7--7--7--
D|-----------------------------------------------
A|-----------------------------------------------
E|--12-12-12----10-10-10----7--7--7-----7--7--7--

E|--------------------------------------------------------------------
B|--------------------------------------------------------------------
G|--14-14-14----12-12-12----6--6--7--6-----6--6--7--6-----6--6--7--6--
D|--------------------------------------------------------------------
A|--------------------------------------------------------------------
E|--13-13-13----12-12-12----7--7--7--7-----7--7--7--7-----7--7--7--7--

E|--------------------------------------
B|--------------------------------------
G|--4-----4-----4-----4-----6--6--7--6--
D|--------------------------------------
A|--2-----------------------------------
E|--0-----2-----3-----5-----7--7--7--7--


-

Paste any tab in acousterr's tab maker and we'll play it !!!
Now supports capo and sound effects for vibrato/pull-off/hammer/bends/mutes etc !!! Checkout help section
tabs and chords, guitar tabs, music transcription, music technology, deep learning, music information retrieval, transcribe into tabs & chords, chordify, music renditions, songsterr, reverbnation, tabulature, bollywood chords, ultimate guitar, yousician, guitar lessons, acoustic guitar, electric guitar, guitar tuner, 911 tabs