Guitar Tabs for Ek Ladki Ko Dekha To Aisa Laga Guitar Tab Sheets Created By Musical G

(/) Slide Up  (\) Slide Down  (h) Hammer On  (p) Pull Off  (b) Bend (r) Release (v) Vibrato (x) Muted

Tabs for Song : Ek Ladki Ko Dekha To Aisa Laga
BPM : 200

Akhiyaa de kol.. reh jaane de.. kehna hai jo.. 
E|--------------------------------------------------------------------------------------------------------
B|--------------------------------------------------------------------------------------------------------
G|--------2-----5-----3--------------2---2\5-----3-----0-----------------3--------0---2\0-----0-----------
D|--3--3-----------------------3--3-----------------------3-----3--3-----------3------------------3\1-----
A|--------------------------------------------------------------------------------------------------------
E|--------------------------------------------------------------------------------------------------------

Keh jaane de...
E|--------------------------------------
B|--------------------------------------
G|--------------------------------------
D|--0--0--1------3\5------3\8-----------
A|--------------------------------------
E|--------------------------------------
Tere khayalo..mein..beete ye raatei..dill mera maange.. ek hi duaa..
E|-----------------------------------------------------------------------------------------------------------------
B|-----------3--------------------------------------6--------4-----3-----------------------------------------------
G|--3--5--------5-----------------3--5-----3--5-----------------------5---3\2--------------------------------------
D|--------------------5-----3--------------------------------------------------5-----5--5--1------3\5-----3--------
A|-----------------------------------------------------------------------------------------------------------------
E|-----------------------------------------------------------------------------------------------------------------
Tu saamne ho..aur..karu main baatei..lamha rahe yiun.. thehra hua...
E|-----------------------------------------------------------------------------------------------------------
B|-----------3-----------------------------------6--------4--3-----------------------------------------------
G|--3--5--------5-----------------3--5-----3--5-----------------5---3\0-----0-----0--0-----------------------
D|--------------------5-----3-----------------------------------------------------------1---3\5---3\13-------
A|-----------------------------------------------------------------------------------------------------------
E|-----------------------------------------------------------------------------------------------------------
Pehle to..kabhi yiun.. mujhko na aisa kuch hua..deewaani...lehron ko jaise.. 
E|--------------------------------------------------------------------------------------------------------------------
B|--4--3-----------4--3--------------3-----3--4-----6-----4--3--------------4--3-----------4--3-----------3-----------
G|-----------5--------------5-----5-----5-----------------------3---5\8--------------5--------------5--------5--------
D|--------------------------------------------------------------------------------------------------------------------
A|--------------------------------------------------------------------------------------------------------------------
E|--------------------------------------------------------------------------------------------------------------------
Saahil mila...ho...Ek ladki ko Dekha to Aisa laga...
E|--------------------------------------------------------------------------------------------------------------------------
B|--------------------------------------------------------------------------------------------------------------------------
G|-----2--3--5-----5-----------3---------5\3---3\2-----2-----3-----5-----2-----3-----5-----2------3\5------3\2-----3--------
D|--3-----------------------------------------------------------------------------------------------------------------------
A|--------------------------------------------------------------------------------------------------------------------------
E|--------------------------------------------------------------------------------------------------------------------------
Ek ladki ko dekha to aisa laga...
E|-----------------------------------------------------------------------------------------
B|-----------------------------------------------------------------------------------------
G|---5\3------3\2-----2-----3-----5-----2-----3-----5-----2------3\5------3\2-----3--------
D|-----------------------------------------------------------------------------------------
A|-----------------------------------------------------------------------------------------
E|-----------------------------------------------------------------------------------------
Jese..Khilta Gulaab Jese..Shaayar Ka khwaab Jese...Ujli kiran Jese..
E|--------------------------------------------------------------------------------------------------------------------------
B|--------------------------------------------------------------------------------------------------------------------------
G|--3-----3-----2-----------2--------------2-----3--------2-----------2-----------2-----3-----2--------2-----------2--------
D|--------------------3--------5-----5--------------------------3--------5-----5-----------------3--------5-----5--------5--
A|--------------------------------------------------------------------------------------------------------------------------
E|--------------------------------------------------------------------------------------------------------------------------
Bann Mein hiran jese..Narmi ki baat Jese..Mandir mein ho Ek ..
E|-----------------------------------------------------------------------------------------------------------------
B|-----------------------------------------------------------------------------------------------3-----------------
G|-----------------------------------------------------3--------------------------------2--3--------5-----5-----5--
D|--------1--5-----3--3-----3--5-----3--------------5-----5-----3-----3--5-----3-----3-----------------------------
A|--5-----------------------------------------5--------------------------------------------------------------------
E|-----------------------------------------------------------------------------------------------------------------
Jalta Diya....Ho
E|-----------------------------------------------------
B|-----------------3-----------------------------------
G|--------2--3--------5---------5\3-----2-----3--------
D|--3--------------------------------------------------
A|-----------------------------------------------------
E|-----------------------------------------------------
Ek ladki ko dekha to aisa laga..
E|-----------------------------------------------------------------------------------
B|-----------------------------------------------------------------------------------
G|---5\3--3-----2-----3-----5-----2-----3-----5-----2------3\5------3\2-----3--------
D|-----------------------------------------------------------------------------------
A|-----------------------------------------------------------------------------------
E|-----------------------------------------------------------------------------------
Ek ladki ko dekha to aisa laga..
E|--------------------------------------------------------------------------------------------
B|--------------------------------------------------------------------------------------------
G|---5\3--3-----2-----3-----5-----2-----3-----5-----2------3\-5\7------5\3-----2-----3--------
D|--------------------------------------------------------------------------------------------
A|--------------------------------------------------------------------------------------------
E|--------------------------------------------------------------------------------------------
O mere soneya ve chhadd saari galiyaan main,
E|--------------------------------------------------------------
B|--------------------------------------------------------------
G|--3--3-----3--------3--3--2--2--------------------------------
D|-----------------5--------------5--5--3--3--5---5\8--3--------
A|--------------------------------------------------------------
E|--------------------------------------------------------------
Naal tere turr chaleya main..
E|--------------------------------------------------------
B|--------------------------------------------------------
G|---0\3-----3-----2--2-----------------------------------
D|-----------------------5--5--3-----3--5---5\8--3--------
A|--------------------------------------------------------
E|--------------------------------------------------------
Le chal mujhko Duniya se tu doorr..
E|-----------------------------------------------------------------------------------------
B|-----------------------------------------------------------------------------------------
G|--3-----3-----3--3--3--------3--3-----5------7\5------5h7--5--------3-----------2--------
D|--------------------------5-----------------------------------------------5--------------
A|-----------------------------------------------------------------------------------------
E|-----------------------------------------------------------------------------------------
chori chori jadd tennu takkeya main..
E|-----------------------------------------------
B|-----------------------------------------------
G|--2--3--3--2--2--------------------------------
D|-----------------5--5--3--3--5---5\8--3--------
A|-----------------------------------------------
E|-----------------------------------------------
Khud ko sambhaal na sakeya main..
E|--------------------------------------------------
B|--------------------------------------------------
G|--0--3--3--2--2-----------------------------------
D|-----------------5--5--3--3--5---5\8-----3--------
A|--------------------------------------------------
E|--------------------------------------------------
Chadh gaya sajna tera ye fitoor...
E|-----------------------------------------------------------------------
B|-----------------------------------------------------------------------
G|--3-----3-----3--3--3--------3--3------5\8--7--5-----7--5--3--2--------
D|--------------------------5--------------------------------------3-----
A|-----------------------------------------------------------------------
E|-----------------------------------------------------------------------
rang jaani re... marjaani ra...
E|--------------------------------------------------------------------------------------
B|--------------------------------------------------------------------------------------
G|--------2-----5-----3--3--3--3---3\7--------------2-----5-----3--3--3--3---3\7--------
D|--3--3--------------------------------------3--3--------------------------------------
A|--------------------------------------------------------------------------------------
E|--------------------------------------------------------------------------------------
Kehni jo thi...Keh de wo baat..
E|-----------------------------------------------------------------
B|-----------------------------------------------------------------
G|--------3---------------3\0--------------------------------------
D|--3--3--------3--5-----------3--1-----0--0--1------3\5-----3-----
A|-----------------------------------------------------------------
E|-----------------------------------------------------------------
rang jaani re... marjaani ra...
E|-----------------------------------------------------------------------------------
B|-----------------------------------------------------------------------------------
G|--------2-----5-----3--3--3--3---3\7-----------2-----5-----3--3--3--3---3\7--------
D|--3--3-----------------------------------3--3--------------------------------------
A|-----------------------------------------------------------------------------------
E|-----------------------------------------------------------------------------------
Kehni jo thi...Keh de wo baat..
E|--------------------------------------------------------------------------------------------
B|--------------------------------------------------------------------------------------------
G|--------3-----------0--3--0------------------------------------------2/3--------------------
D|--3--3--------3--------------3--1-----0--0--1------3\5-----3--------------------------------
A|--------------------------------------------------------------------------------------------
E|--------------------------------------------------------------------------------------------
Ho...Ek ladki ko dekha toh aisa laga...
E|--------------------------------------------------------------------------------------------------
B|--------------------------------------------------------------------------------------------------
G|---2\3------5\3------3\2-----2-----3-----5-----2-----3-----5-----2------3\5------3\2-----3--------
D|--------------------------------------------------------------------------------------------------
A|--------------------------------------------------------------------------------------------------
E|--------------------------------------------------------------------------------------------------
Ek ladki ko dekha to aisa laga...
E|-----------------------------------------------------------------------------------------------------
B|-----------------------------------------------------------------------------------------------------
G|---5\3------3\2-----2-----3-----5-----2-----3-----5-----2------3\-5\7------5\-3\2------2\3-----------
D|-----------------------------------------------------------------------------------------------------
A|-----------------------------------------------------------------------------------------------------
E|-----------------------------------------------------------------------------------------------------

E|--
B|--
G|--
D|--
A|--
E|--

-

Use manual mode to free up cursor. Paste any tab in acousterr tab maker and we'll play it !!!
tabs and chords, guitar tabs, music transcription, music technology, deep learning, music information retrieval, transcribe into tabs & chords, chordify, music renditions, songsterr, reverbnation, tabulature, bollywood chords, ultimate guitar, yousician, guitar lessons, acoustic guitar, electric guitar, guitar tuner, 911 tabs