Guitar Tabs for Nazar Na Lag Jaye Stree Guitar Tab Sheets Lead Created By Musical G

(/) Slide Up  (\) Slide Down  (h) Hammer On  (p) Pull Off  (b) Bend (r) Release (v) Vibrato (x) Muted

Tabs for Song : Nazar Na Lag Jaye
BPM : 2
Entro 1
E|-----------------------------------------8--------8--------------------------------
B|-----8--8--10-10-11-10-------11-10----11-------11-------11-10-8-----10-8-----------
G|--7--------------------------------------------------------------------------7-----
D|-----------------------------------------------------------------------------------
A|-----------------------------------------------------------------------------------
E|-----------------------------------------------------------------------------------
Entro 2
E|-----------------------------------------8--------8-----8--10----11----10-8-----------------------------------
B|-----8--8--10-10-11-10-------11-10----11-------11----11----------------------11-10-11-8-----8-----8-----8-----
G|--7-----------------------------------------------------------------------------------------------------------
D|--------------------------------------------------------------------------------------------------------------
A|--------------------------------------------------------------------------------------------------------------
E|--------------------------------------------------------------------------------------------------------------

Goriye.. tu kinni goriye..tu zameen pe chaand ki jodi hai..
E|--------------------------------------------------------------------------------
B|--1--3--3-----3--1-----1--3--3-----3--6---6\4--4--3---3h4--1-----1--3--3--------
G|--------------------3-----------------------------------------3-----------------
D|--------------------------------------------------------------------------------
A|--------------------------------------------------------------------------------
E|--------------------------------------------------------------------------------
Buri hai..bari buri hai..duniya ki neeyat chhoriye...
E|--------------------------------------------------------------------------------
B|--1--3--3-----3--1-----1--3--3--------3--6---6\4--4--3--3--1-----1--------------
G|--------------------3-----------------------------------------3-----------------
D|--------------------------------------------------------------------------------
A|--------------------------------------------------------------------------------
E|--------------------------------------------------------------------------------
Nazar na lag jaye jaanu..thought ye ghabraye saanu...
E|--------------------------------------------------------------------------------------------------
B|------------------------------------3\1--1---------------1\3-----3--------------------------------
G|--2--2--3--2-----0--0---2\3--3-----------------3-----3--------------2--2------2\3--2-----0--------
D|--------------------------------------------------------------------------------------------------
A|--------------------------------------------------------------------------------------------------
E|--------------------------------------------------------------------------------------------------
Nazar na lag jaye jaanu..thought ye ghabraye saanu...
E|-----------------------------------------------------------------------------------------------------
B|------------------------------------3\1--1---------------1\3-----3-----------------------------------
G|--2--2--3--2-----0--0---2\3--3-----------------3-----3--------------2--2------2h3--2-----0-----------
D|-----------------------------------------------------------------------------------------------------
A|-----------------------------------------------------------------------------------------------------
E|-----------------------------------------------------------------------------------------------------
Middle Solo 1
E|--------------------------------------------8--8--8-----8--8--8--11-10h11-10-8-----------------
B|--8--11-10-10-10-8--10-10-10-8--10-10-10-11----------11-------------------------11-10-8--------
G|-----------------------------------------------------------------------------------------------
D|-----------------------------------------------------------------------------------------------
A|-----------------------------------------------------------------------------------------------
E|-----------------------------------------------------------------------------------------------
Middle Solo 2
E|--------------------------------------------------8--8--8-----8--8--8--11-10h11-10-8-----8--10-------
B|--8-----8--11-10-10-10-8--10-10-10-8--10-10-10-11----------11-------------------------11-------------
G|-----------------------------------------------------------------------------------------------------
D|-----------------------------------------------------------------------------------------------------
A|-----------------------------------------------------------------------------------------------------
E|-----------------------------------------------------------------------------------------------------
Middle Solo 3
E|-----------------------------------------8--------8-----------------------------
B|-----8--8--10-10-11-10-------11-10----11-------11----11\10-8-----10-8-----------
G|--7--------------------------------------------------------------------7--------
D|--------------------------------------------------------------------------------
A|--------------------------------------------------------------------------------
E|--------------------------------------------------------------------------------
Middle solo 4
E|-----------------------------------------8--------8-----8--10-11----10-8-----------------------
B|-----8--8--10-10-11-10-------11-10----11-------11----11-------------------11-10-11-8-----------
G|--7--------------------------------------------------------------------------------------------
D|-----------------------------------------------------------------------------------------------
A|-----------------------------------------------------------------------------------------------
E|-----------------------------------------------------------------------------------------------
ho..maathe pe gore kaala,teeka bana le mujhko
E|-----------------------------------------------------------------------------------------
B|-----------------------------------------------------------------------------------------
G|--3------3\2---2\0--0--0-----0-----2-----3------2\0--0--------------------0--0--2--------
D|-----------------------------------------------------------3--3-----3--------------------
A|-----------------------------------------------------------------------------------------
E|-----------------------------------------------------------------------------------------
Tujhko Balaao se bacha loon...
E|--------------------------------------------------------------
B|--------------------------------------------------------------
G|--0--0--0-----2------2/3------0\2-----0--0-----0--------------
D|-----------------3--------------------------------------------
A|--------------------------------------------------------------
E|--------------------------------------------------------------
Hai dhoop ye zamana..oas ki boond hai tu..
E|-----------------------------------------------------------------------------------
B|-----------------------------------------------------------------------------------
G|---3\2---2\0-----0--0-----0--2-----3------2\0--0--0-----------------0-----2--------
D|-----------------------------------------------------3-----3-----3-----------------
A|-----------------------------------------------------------------------------------
E|-----------------------------------------------------------------------------------
palko ki chhao mein chhupa loon..
E|-----------------------------------------------------------------------------------
B|-----------------------1------1\3-----1------1h3---1h3---------3h4--1--------------
G|--0-----0-----2--3-----------------3-----------------------------------3-----------
D|-----------------------------------------------------------------------------------
A|-----------------------------------------------------------------------------------
E|-----------------------------------------------------------------------------------
Goriye.. ye meri theory hai..ki ye teri meri lead mein story hai..
E|-----------------------------------------------------------------------------------
B|---1\3--3-----3--1-----1--3--3--------3--6---6\4--4--3---3h4--1-----1--3--3--------
G|--------------------3--------------------------------------------3-----------------
D|-----------------------------------------------------------------------------------
A|-----------------------------------------------------------------------------------
E|-----------------------------------------------------------------------------------
Sorry hai..khud sorry hai..hai jo beech apne doori ye...
E|--------------------------------------------1--1--------------------------------------
B|--1--3---1\3-----3--1-----1--3--3--------3--------4--4--3--3--1--1------1h3-----------
G|-----------------------3--------------------------------------------3-----------------
D|--------------------------------------------------------------------------------------
A|--------------------------------------------------------------------------------------
E|--------------------------------------------------------------------------------------
Nazar na lag jaaye jaanu..Thought ye tadpaaye sanu..
E|-----------------------------------------------------------------------------------------
B|---------------------------------3\1---------------1\3-----3-----------------------------
G|--2--2--3---2\0--0--0---2\3--3--------2-----3--3--------------2--2---2h3--2--0-----------
D|-----------------------------------------------------------------------------------------
A|-----------------------------------------------------------------------------------------
E|-----------------------------------------------------------------------------------------
nazar na lag jaaye jaanu..Thought ye tadpaye saanu.
E|-----------------------------------------------------------------------------------------------------------------
B|--3------------------------------------3\1--1------------------1\3-----3-----------------------------------------
G|------2h3---2\0-----0--0---2\3--3--------------2-----3-----3--------------2--2------2h3---2h0-----0---2h3-----0--
D|-----------------------------------------------------------------------------------------------------------------
A|-----------------------------------------------------------------------------------------------------------------
E|-----------------------------------------------------------------------------------------------------------------

Use manual mode to free up cursor. Paste any tab in acousterr tab maker and we'll play it !!!



tabs and chords, guitar tabs, music transcription, music technology, deep learning, music information retrieval, transcribe into tabs & chords, chordify, music renditions, songsterr, reverbnation, tabulature, bollywood chords, ultimate guitar, yousician, guitar lessons, acoustic guitar, electric guitar, guitar tuner, 911 tabs