Guitar Tabs for Ek Ladki Ko Dekha - Sanam Tabs

(/) Slide Up  (\) Slide Down  (h) Hammer On  (p) Pull Off  (b) Bend (r) Release (v) Vibrato (x) Muted

Tabs for Song : Ek ladki Ko Dekha

Intro
E|--------------------------------------------------
B|-----10-13-11----10-13-11----11-------------------
G|--10----------10----------10----10-12-------12-10-
D|--------------------------------------12-13-------
A|--------------------------------------------------
E|--------------------------------------------------

Ho... Ek ladki ko dekha toh aisa laga
E|--------------------------------------------
B|--11-11-11-10-11-13-10-11-13-10-11/13-11-11-
G|--------------------------------------------
D|--------------------------------------------
A|--------------------------------------------
E|--------------------------------------------

Jaise khilta gulaab Jaise shaayar ka khwaab Jaise ujli kiran
E|-----------------------------------------------------------------
B|--11-11-10-11----10----10-11-10-11----10----10-11-10-11----10----
G|--------------10----12-------------10----12-------------10----12-
D|-----------------------------------------------------------------
A|-----------------------------------------------------------------
E|-----------------------------------------------------------------

Jaise ban mein hiran Jaise chandani raat
E|--------------------------------------------
B|--------------------------------------------
G|--12-12-------12-10-10-12-12-------12-10-10-
D|--------12-13----------------12-13----------
A|--------------------------------------------
E|--------------------------------------------

Jaise narmi ki baat Jaise mandir mien ho ek jalta diya
E|--------------------------------------10-------------------10-------
B|--------------11----------------10-11----13-13-13----10-11----13-11-
G|--10-10----12----12-10-10-10-10-------------------10----------------
D|--------12----------------------------------------------------------
A|--------------------------------------------------------------------
E|--------------------------------------------------------------------

ek ladki ko dekha to aisa laga
E|-----------------------------------------
B|--13-11-10-11-13-10-11-13-10-11/13-11-11-
G|-----------------------------------------
D|-----------------------------------------
A|-----------------------------------------
E|-----------------------------------------
tabs and chords, guitar tabs, music contests, music covers, songsterr, reverbnation, renditions, tabulature, bollywood chords, ultimate guitar, yousician, guitar lessons, torrins, fender, gibson, acoustic guitar, electric guitar, youtube covers, gootar, guitar tuner, A-Z tabs, 911 tabs