Guitar Tabs for Ek Ladki Ko Dekha To Aisa Laga Darshan Raval

(/) Slide Up  (\) Slide Down  (h) Hammer On  (p) Pull Off  (b) Bend (r) Release (v) Vibrato (x) Muted
e|-----5--8--6--------5--8--6--------6-----------------------------3--------
b|--6-----------6--6-----------6--------6---6/-8\-6\-4\3--3--4---------6/11-
G|--------------------------------------------------------------------------
D|--------------------------------------------------------------------------
A|--------------------------------------------------------------------------
E|--------------------------------------------------------------------------


e|--6--8--10-8--6-----6--8--6--8---8/13----11-10-8--6--3--3-----3-----
b|-----------------6-----------------------------------------4-----6--
G|--------------------------------------------------------------------
D|--------------------------------------------------------------------
A|--------------------------------------------------------------------
E|--------------------------------------------------------------------

e|--6--8--10-8--6-----6--8--6--8---8/13----11-10-8--6--3---3h-4p3--------3--------
b|-----------------6--------------------------------------------------4------6/11-
G|--------------------------------------------------------------------------------
D|--------------------------------------------------------------------------------
A|--------------------------------------------------------------------------------
E|--------------------------------------------------------------------------------

e|--11-10-8--11-10-8--8--10-8--10-10/11-11/13-11\10-6--8--11-10-8--11-10-8---8h10p8--------------------10----------
b|--------------------------------------------------------------------------------------11-10--6/10-11-------13-11-
G|-----------------------------------------------------------------------------------------------------------------
D|-----------------------------------------------------------------------------------------------------------------
A|-----------------------------------------------------------------------------------------------------------------
E|-----------------------------------------------------------------------------------------------------------------

e|---6/8--6--5--6--8--5--6--8--5---6/8--5--6---6/8--6--5--6--8--5--6--8--5---6/8--5--6--
B|--------------------------------------------------------------------------------------
G|--------------------------------------------------------------------------------------
D|--------------------------------------------------------------------------------------
A|--------------------------------------------------------------------------------------
E|--------------------------------------------------------------------------------------


e|--6--6--6---3/6--6--5---5\3---3\1---1/3---3\1--1---3/6--6--5---5\3---3\1---1/3---3\1--1---3/6--6--6--6---3/6--6--8--10-8--11-10-8--------------
b|--------------------------------------------------------------------------------------------------------------------------------------11-10-8--
G|-----------------------------------------------------------------------------------------------------------------------------------------------
D|-----------------------------------------------------------------------------------------------------------------------------------------------
A|-----------------------------------------------------------------------------------------------------------------------------------------------
E|-----------------------------------------------------------------------------------------------------------------------------------------------


e|---3/6--6--5---5\3---3\1---1/3---3\1--1---3/6--6--5---5\3---3\1---1/3---3\1--1---3/6--6--6--6---3/6--6--8--10-8--11-10-8-----------
B|-----------------------------------------------------------------------------------------------------------------------------------
G|-----------------------------------------------------------------------------------------------------------------------------------
D|-----------------------------------------------------------------------------------------------------------------------------------
A|-----------------------------------------------------------------------------------------------------------------------------------
E|-----------------------------------------------------------------------------------------------------------------------------------


e|-----5--8--6--6--6--6--6--------5--8--6--6--6--6--6-----6-----------------------------3--------------
b|--6-----------------------6--6-----------------------6--------6--8--8--8--8--3--4--------6--6--6--6--
G|-----------------------------------------------------------------------------------------------------
D|-----------------------------------------------------------------------------------------------------
A|-----------------------------------------------------------------------------------------------------
E|-----------------------------------------------------------------------------------------------------



e|---6/8--6--5--6--8--5--6--8--5---6/8--5--6---6/8--6--5--6--8--5--6--8--5---6/8--5--6--
B|--------------------------------------------------------------------------------------
G|--------------------------------------------------------------------------------------
D|--------------------------------------------------------------------------------------
A|--------------------------------------------------------------------------------------
E|--------------------------------------------------------------------------------------



Tabs for Song : 
BPM : 200

Song lyrics here 
E|--
B|--
G|--
D|--
A|--
E|--

Song lyrics here 
E|--
B|--
G|--
D|--
A|--
E|--

Use manual mode to free up cursor. Paste any tab in acousterr tab maker and we'll play it !!!
tabs and chords, guitar tabs, music transcription, music technology, deep learning, music information retrieval, transcribe into tabs & chords, chordify, music renditions, songsterr, reverbnation, tabulature, bollywood chords, ultimate guitar, yousician, guitar lessons, acoustic guitar, electric guitar, guitar tuner, 911 tabs