Guitar Tabs for Mile Ho Tum Humko Guitar Tab Sheets Created By Musical G

(/) Slide Up  (\) Slide Down  (h) Hammer On  (p) Pull Off  (b) Bend (r) Release (v) Vibrato (x) Muted

Tabs for Song : Mile Ho Tum Humko - Neha Kakkar - Tony Kakkar - Musical G
BPM : 200

Entro 1
E|--------11\8--------------------------------------------------------------------------------------------------------------
B|--9-----------------11----9--8-----9---9\11----------6------8\9---8\9-----6-----------------------6------8h9-----6--------
G|--------------------------------------------------------------------------------8---8\6-----8-----------------------------
D|--------------------------------------------------------------------------------------------------------------------------
A|--------------------------------------------------------------------------------------------------------------------------
E|--------------------------------------------------------------------------------------------------------------------------
Mile Ho Tum Humko.. Bare Naseebo Se..Churaaya Hai Maine
E|--------------------------------------------------------------------------------------------------------------------------
B|-----9-----8--9-----9------9\-8\6--------6--8-----6-----8-----8------8\6--------------6--------6-----6-----6--------------
G|--5--------------------------------------------------------------------------8-----8--------8-----------------8--6--------
D|--------------------------------------------------------------------------------------------------------------------------
A|--------------------------------------------------------------------------------------------------------------------------
E|--------------------------------------------------------------------------------------------------------------------------
Qismat Ki Lakeero Se...
E|--------------------------------------------------------
B|--------------8--8---8h-9\6------8h-9\6-----6-----------
G|--------------------------------------------------------
D|--8--8--8--8--------------------------------------------
A|--------------------------------------------------------
E|--------------------------------------------------------
Mile Ho Tum Humko.. Bare Naseebo Se..
E|--------------------------------------------------------------------------------------------
B|-----9-----8--9-----9------9\-8\6--------6--8-----6-----8------8\11\8------8\6--------------
G|--5--------------------------------------------------------------------------------8--------
D|--------------------------------------------------------------------------------------------
A|--------------------------------------------------------------------------------------------
E|--------------------------------------------------------------------------------------------
Churaaya hai maine..Qismat Ki Lakeero Se...
E|-----------------------------------------------------------------------------------------------
B|-----6--------6-----6-----6--------------------------8--8---8h-9\6------8h-9\6-----6-----------
G|--8--------8-----------------8--6--------------------------------------------------------------
D|-----------------------------------------8--8--8--8--------------------------------------------
A|-----------------------------------------------------------------------------------------------
E|-----------------------------------------------------------------------------------------------
Teri mohobbat se saanse mili hai
E|--------------------8-----8--8--8-----8-----9-----6--------------------
B|--6-----8-----9-----------------------------------------8-----8--------
G|-----------------------------------------------------------------------
D|-----------------------------------------------------------------------
A|-----------------------------------------------------------------------
E|-----------------------------------------------------------------------
Sada rehna dil mein..Qareeb ho ke...
E|-----------9--9--9-----9--------------------------------8--------
B|--8--8-----------------------8-----8---8h-9\6------8\9-----------
G|-----------------------------------------------------------------
D|-----------------------------------------------------------------
A|-----------------------------------------------------------------
E|-----------------------------------------------------------------
Mile ho tum humko..bare naseebo se... 
E|-----------------------------------------------------------------------------------------
B|-----9-----8-----9-----9------9\-8\6-----6--8-----6-----8-----8------8\6-----------------
G|--5--------------------------------------------------------------------------8-----------
D|-----------------------------------------------------------------------------------------
A|-----------------------------------------------------------------------------------------
E|-----------------------------------------------------------------------------------------
Churaaya hai maine..qismat ki lakeero se...
E|-----------------------------------------------------------------------------------------
B|-----6-----------6-----6-----6-----------------------8--8---8h-9\6------8h-9\6-----6-----
G|--8--------8---------------------8\6-----------------------------------------------------
D|-----------------------------------------8--8--8--8--------------------------------------
A|-----------------------------------------------------------------------------------------
E|-----------------------------------------------------------------------------------------
Mile ho tum humko..bare naseebo se..
E|--------------------------------------------------------------------------------------
B|-----9-----8-----9-----9------9\-8\6-----6--8-----6--8------8\11\8------8\6-----------
G|--5--------------------------------------------------------------------------8--------
D|--------------------------------------------------------------------------------------
A|--------------------------------------------------------------------------------------
E|--------------------------------------------------------------------------------------
Churaaya hai maine..Qismat ki lakeero se...
E|--------------------------------------------------------------------------------------------------
B|--------------------------------------------------------8--8---8h-9\6------8h-9\6-----6-----------
G|--8--10\8-----8-----10----10----10\-8\6-----------------------------------------------------------
D|--------------------------------------------8--8--8--8--------------------------------------------
A|--------------------------------------------------------------------------------------------------
E|--------------------------------------------------------------------------------------------------
Teri chaahato mein kitna..tadpe hai...
E|--------------------------------------------------------------------------------------------------
B|--------2--------2-----2--1------2h4-----1--1--2------1\2-----1-----------------------------------
G|-----------------------------------------------------------------3------3\5------1\0--------------
D|--3--------------------------------------------------------------------------------------3--------
A|--------------------------------------------------------------------------------------------------
E|--------------------------------------------------------------------------------------------------
Saawan bhi tujh bin kitne..barse hai...
E|--------------------------------------------------------------------------------------------------
B|-----------------2-----2--2--2-----1--1---2h4------1\2-----1--------------------------------------
G|-----------3--------------------------------------------------3------3\5------3\1-----0-----------
D|---3\5-----------------------------------------------------------------------------------3--------
A|--------------------------------------------------------------------------------------------------
E|--------------------------------------------------------------------------------------------------
Zindagi mein meri saari..jo bhi kami thi..
E|--------------------------------------------------------6-----------------------------------------------
B|--6-----8------9\6-----6--6------8\9-----9-----9--------------9--8-----6------6\8------8h-9\6-----------
G|--------------------------------------------------------------------------------------------------------
D|--------------------------------------------------------------------------------------------------------
A|--------------------------------------------------------------------------------------------------------
E|--------------------------------------------------------------------------------------------------------
Tere aajaane se ab..nahi rahi...
E|--------------------------------------------------------------------------
B|--6-----9--8-----6--------------------------8---8h-9\6-----6--6-----------
G|---------------------8\6--6-----5--6--------------------------------------
D|--------------------------------------------------------------------------
A|--------------------------------------------------------------------------
E|--------------------------------------------------------------------------
Sada hi rehna tum... mere qareeb ho ke..
E|--------------------------------------------------------------------------------------------
B|-----------9-----8-----9--9--9------9\-8\6--------6--8-----6--8-----8------8\6--------------
G|--5--5-----------------------------------------------------------------------------8--------
D|--------------------------------------------------------------------------------------------
A|--------------------------------------------------------------------------------------------
E|--------------------------------------------------------------------------------------------
Churaaya hai maine..qismat ki lakeero se...
E|--------------------------------------------------------------------------------------------------
B|--------------------------------------------------------------8--8---8h-9\6------8h-9\6-----6-----
G|--8--10\8-----8-----10----10----10\-8\6-----------------------------------------------------------
D|-----------------------------------------------8--8--8--8-----------------------------------------
A|--------------------------------------------------------------------------------------------------
E|--------------------------------------------------------------------------------------------------
Mile ho tum humko..bare naseebo se..
E|--------------------------------------------------------------------------------
B|-----9-----8--9-----9------9\-8\6--------6--8-----6--8------8\11\8---8\6--------
G|--5-----------------------------------------------------------------------8-----
D|--------------------------------------------------------------------------------
A|--------------------------------------------------------------------------------
E|--------------------------------------------------------------------------------
churaaya hai maine..qismat ki lakeero se...
E|--------------------------------------------------------------------------------------------------
B|-----------------------------------------------------------8--8---8h-9\6------8h-9\6-----6--------
G|--8--10\8-----8-----10----10----10\-8\6-----------------------------------------------------------
D|--------------------------------------------8--8--8--8--------------------------------------------
A|--------------------------------------------------------------------------------------------------
E|--------------------------------------------------------------------------------------------------
Entro 2 (1)
E|--13-15-16----13-15-16----13-15-16----13-15-16----
B|--------------------------------------------------
G|--------------------------------------------------
D|--------------------------------------------------
A|--------------------------------------------------
E|--------------------------------------------------
Entro 2 (2)
E|--13-18-16----13-18-16----13-18-16----13-18-16-15h16----13-15-15\16----13----------------------13----13\15----
B|--------------------------------------------------------------------------16----16\14----16-------------------
G|--------------------------------------------------------------------------------------------------------------
D|--------------------------------------------------------------------------------------------------------------
A|--------------------------------------------------------------------------------------------------------------
E|--------------------------------------------------------------------------------------------------------------
Entro 2 (3)
E|--------------------------------
B|--16-16-16----14-13-------------
G|--------------------------------
D|--------------------------------
A|--------------------------------
E|--------------------------------
Baaho mein eri ab yaara..jannat hai...
E|--------------------------------------------------------------------------------------------------
B|--------2--------2-----2--1-----2--2--1-----2---------1\2--1--------------------------------------
G|-----------------------------------------------------------------3------3\5------1\0--------------
D|--3--------------------------------------------------------------------------------------3--------
A|--------------------------------------------------------------------------------------------------
E|--------------------------------------------------------------------------------------------------
Maangi khuda se tu wo..mannat hai...
E|--------------------------------------------------------------------------------------------------
B|-----------------2--2-----2-----1------2h4------1\2-----1-----------------------------------------
G|-----------3--------------------------------------------------3------3\5------3\1-----0-----------
D|---3\5-----------------------------------------------------------------------------------3--------
A|--------------------------------------------------------------------------------------------------
E|--------------------------------------------------------------------------------------------------
Teri wafa ka.. sahara mila hai...
E|-----------------------------------------6-----------------------------------------------
B|---6\8-----9-----6---6\-8\9-----9--------------9--8-----6---6h8---6h8------8h-9\6--------
G|-----------------------------------------------------------------------------------------
D|-----------------------------------------------------------------------------------------
A|-----------------------------------------------------------------------------------------
E|-----------------------------------------------------------------------------------------
Teri hi waja se ab main..zinda hun
E|--------------------------------------------------------------------------------------
B|--6-----9--8-----6--------------------------------8------8h-9\6-----6-----------------
G|---------------------8\6-----6-----5--5--6--------------------------------------------
D|--------------------------------------------------------------------------------------
A|--------------------------------------------------------------------------------------
E|--------------------------------------------------------------------------------------
Teri Mohobbat se..zara ameer..ho ke
E|--------------------------------------------------------------------------------------
B|-----9-----8-----9-----9--9---9\-8\6-----6--8-----6--8--------11\8---8\6--------------
G|--5--------------------------------------------------------------------------8--------
D|--------------------------------------------------------------------------------------
A|--------------------------------------------------------------------------------------
E|--------------------------------------------------------------------------------------
Churaaya hai amine..qismat ki lakeero se..
E|--------------------------------------------------------------------------------------------
B|--------------------------------------------------------8--8---8h-9\6------8h-9\6--------6--
G|--8--10\8--8-----10----10----10\-8\6--------------------------------------------------------
D|--------------------------------------------8--8--8--8--------------------------------------
A|--------------------------------------------------------------------------------------------
E|--------------------------------------------------------------------------------------------
Mile ho tum humko..bare naseebo se
E|--------------------------------------------------------------------------------------
B|-----9-----8-----9-----9------9\-8\6-----6---8\6-----6--8------8h11\8---8\6-----------
G|--5-----------------------------------------------------------------------------8-----
D|--------------------------------------------------------------------------------------
A|--------------------------------------------------------------------------------------
E|--------------------------------------------------------------------------------------
Churaaya hai maine.. qismat ki lakeero se...
E|-----------------------------------------------------------------------------------------------
B|--------------------------------------------------------8--8---8h-9\6------8h-9\6-----6--------
G|--8--10\8-----8-----10----10----10\-8\6--------------------------------------------------------
D|--------------------------------------------8--8--8--8-----------------------------------------
A|-----------------------------------------------------------------------------------------------

Use manual mode to free up cursor. Paste any tab in acousterr tab maker and we'll play it !!!
tabs and chords, guitar tabs, music transcription, music technology, deep learning, music information retrieval, transcribe into tabs & chords, chordify, music renditions, songsterr, reverbnation, tabulature, bollywood chords, ultimate guitar, yousician, guitar lessons, acoustic guitar, electric guitar, guitar tuner, 911 tabs