Guitar Tabs for Dororo "kaen"

E|--12-10-------------------12-10-------------------------------------------------------------
B|--------13-12-13-------10-------13-12-10-------10-13-12-10----10-------10-13-12-10----------
G|-----------------------------------------------------------12----------------------12-9-----
D|--------------------------------------------------------------------------------------------
A|--------------------------------------------------------------------------------------------
E|--------------------------------------------------------------------------------------------

E|--------12-10-------------------12-10----------------------------------------------------------
B|-----10-------13-12-13-------10-------13-12-10-------10-13-12-10----10-------10-13-12-10-------
G|-----------------------------------------------------------------12----------------------12-9--
D|-----------------------------------------------------------------------------------------------
A|-----------------------------------------------------------------------------------------------
E|-----------------------------------------------------------------------------------------------

tabs and chords, guitar tabs, music transcription, music technology, deep learning, music information retrieval, transcribe into tabs & chords, chordify, music renditions, songsterr, reverbnation, tabulature, bollywood chords, ultimate guitar, yousician, guitar lessons, acoustic guitar, electric guitar, guitar tuner, 911 tabs