Guitar Tabs for Dona Nobis Pacem

(/) Slide Up  (\) Slide Down  (h) Hammer On  (p) Pull Off  (b) Bend (r) Release (v) Vibrato (x) Muted

Tabs for Song : Dona Nobis Pacem
Tabs by : Rainer
BPM : 90

E|--------------------------------------------------------------------------------------------------
B|-----------------------------------------------------0--------------------------------------------
G|-----------------------0--------------------------------2--0--------2-----0-----------------------
D|--0-----4--------2--------------4--2--0--0--------------------4--2-----------4-----4--2--0-----0--
A|--------------------------------------------4-----------------------------------------------4-----
E|-----5--------------5-----------------------------------------------------------------------------

E|--------------------------------------------------------------------------------
B|-----------------------------------------------0--0-----------------------------
G|--------2--------2--------2--0--------------------------2--2-----2--0-----------
D|--------------------------------4--4--2--------------------------------4--2--0--
A|--------------------------------------------------------------------------------
E|--------------------------------------------------------------------------------

E|--------------------------------------------------------------------------------------
B|--------------------------------------------------------------------------------------
G|--------------------------------------0--2-----------0--0--------------------2--------
D|--------0-----------------0-----2--4--------------------------4--4--------2--------0--
A|-----------------4--------------------------0--------------------------4--------0-----
E|--------------------------------------------------------------------------------------

Use manual mode to free up cursor. Paste any tab in acousterr tab maker and we'll play it !!!



tabs and chords, guitar tabs, music transcription, music technology, deep learning, music information retrieval, transcribe into tabs & chords, chordify, music renditions, songsterr, reverbnation, tabulature, bollywood chords, ultimate guitar, yousician, guitar lessons, acoustic guitar, electric guitar, guitar tuner, 911 tabs