Guitar Tabs for Dipsiz Kuyum

(/) Slide Up  (\) Slide Down  (h) Hammer On  (p) Pull Off  (b) Bend (r) Release (v) Vibrato (x) Muted

Tabs for Song : 

Song lyrics here
E|-----------------0--0--x--0----------------------------------------0---0-----x----0-----------------------------------
B|--4--2--4--2--4--------x-----4--2--0--2--0--0-----x--4--2--4--2--4-----------x--------4--2--0--2--0--0-----------------
G|-----------------------x-----------------------2--x--------------------------x-------------------------2---2-----1-----
D|-----------------------x--------------------------x--------------------------x-----------------------------------------
A|-----------------------x--------------------------x--------------------------x-----------------------------------------
E|-----------------------x--------------------------x--------------------------x-----------------------------------------

Song lyrics here
E|--4--4--2--4--2--0--0--2--0-----x--------------------------------x--4-----4--4--4-----4--2--4--------2--4--x--7--5--4--4--2--0-----------0--2--x--
B|-----------------------------4--x--4--4--2--0--2-----0--2--------x-----------------------------------------x--------------------4--------------x--
G|--------------------------------x-----------------2--------1--1--x-----------------------------------------x-----------------------------------x--
D|--------------------------------x--------------------------------x-----------------------------------------x-----------------------------------x--
A|--------------------------------x--------------------------------x-----------------------------------------x-----------------------------------x--
E|--------------------------------x--------------------------------x-----------------------------------------x-----------------------------------x--

E|--4--2--0--0-----------------------------x-----------------x--------0-----0--2--4--5--4--x--4--2--2--0--------
B|--------------4-----4--4--2--0--------0--x--2--0-----------x-----4-----4-----------------x--------------4--2--
G|--------------------------------2--1-----x--------2--1--1--x-----------------------------x--------------------
D|-----------------------------------------x-----------------x-----------------------------x--------------------
A|-----------------------------------------x-----------------x-----------------------------x--------------------
E|-----------------------------------------x-----------------x-----------------------------x--------------------

E|-----------------------0--2--x--2--0-----------------------------x-----------------------0-----x--0-----0--0--2--0--------------------------
B|--2--4--2-----2--2--4--------x--------4--4--2--2--0--4--2--0--2--x--0-----2--0-----0--4-----4--x--------------------4--4--2--4--2--0--2-----
G|-----------------------------x-----------------------------------x--------------3--------------x-----------------------------------------2--
D|-----------------------------x-----------------------------------x-----------------------------x--------------------------------------------
A|-----------------------------x-----------------------------------x-----------------------------x--------------------------------------------
E|-----------------------------x-----------------------------------x-----------------------------x--------------------------------------------

E|----------------------------------------------------------
B|-----0--------------0--------2--4----4---0--0--2-----------
G|--2-----2-----1-----------------------------------2--1-----
D|-----------------------------------------------------------
A|-----------------------------------------------------------
E|-----------------------------------------------------------

E|--
B|--
G|--
D|--
A|--
E|--

Paste any tab in acousterr's tab maker and we'll play it !!!
Now supports capo and sound effects for vibrato/pull-off/hammer/bends/mutes etc !!! Checkout help section
tabs and chords, guitar tabs, music transcription, music technology, deep learning, music information retrieval, transcribe into tabs & chords, chordify, music renditions, songsterr, reverbnation, tabulature, bollywood chords, ultimate guitar, yousician, guitar lessons, acoustic guitar, electric guitar, guitar tuner, 911 tabs