Guitar Tabs for Dfwa

(/) Slide Up  (\) Slide Down  (h) Hammer On  (p) Pull Off  (b) Bend (r) Release (v) Vibrato (x) Muted

Tabs for Song : 

Song lyrics here
E|--------------------------------------------------
B|--------------------------------------------------
G|--------------------------------------------------
D|--------------9--9--9--9--8--8--8--8--9--9--9--9--
A|--9--9--9--9--7--7--7--7--9--9--9--9--7--7--7--7--
E|--7--7--7--7--------------------------------------

Song lyrics here
E|--------------------------------------------------
B|--------------------------------------------------
G|--------------------------------------------------
D|--------------9--9--9--9--8--8--8--8--9--9--9--9--
A|--9--9--9--9--7--7--7--7--9--9--9--9--7--7--7--7--
E|--7--7--7--7--------------------------------------

E|-----------------------------------------------
B|-----------------------------------------------
G|-----------------------------------------------
D|---9/11----9--8-----------11-9-----8--9--8-----
A|--------------------9-----------------------9--
E|-----------------------------

Paste any tab in acousterr's tab maker and we'll play it !!!
Now supports capo and sound effects for vibrato/pull-off/hammer/bends/mutes etc !!! Checkout help section
E|-----------------------------------------------
B|-----------------------------------------------
G|-----------------------------------------------
D|---9/11----9--8-----------11-9-----8--9--8-----
A|--------------------9-----------------------9--
E|-----------------------------------------------

E|--12-12-12-12-9-----9--9-----
B|--9--9--9--9--9-----12-9-----
G|-----------------------------
D|-----------------------------
A|-----------------------------
E|-----------------------------

E|--------------------------------------------
B|--12-12-12-12-------------------------------
G|--------------11----11h13----13b14r13-11-9--
D|--------------------------------------------
A|--------------------------------------------
E|--------------------------------------------------

E|--E|--------------------------------------------
B|--12-12-12-12-------------------------------
G|--------------11----11h13----13b14r13-11-9--
D|--------------------------------------------
A|--------------------------------------------
E|-------------------------------------------------------


tabs and chords, guitar tabs, music transcription, music technology, deep learning, music information retrieval, transcribe into tabs & chords, chordify, music renditions, songsterr, reverbnation, tabulature, bollywood chords, ultimate guitar, yousician, guitar lessons, acoustic guitar, electric guitar, guitar tuner, 911 tabs