Guitar Tabs for Detour - Snijeg

(/) Slide Up  (\) Slide Down  (h) Hammer On  (p) Pull Off  (b) Bend (r) Release (v) Vibrato (x) Muted

Verse:
BPM : 172

E|--------------------------------------------------------------------------------------------------------------------------------------------------------------------------------------
B|--------3-----------8-----------6-----------7-----------3-----------8-----------6-----------7-----------3-----------8-----------6-----------7-----------8-----------6--------------7--
G|--------3-----------8-----------7-----------5-----------3-----------8-----------7-----------5-----------3-----------8-----------7-----------5-----------8-----------7-----------5--5--
D|-----------------8-----------8-----------7-----7-----------------8-----------8-----------7-----7-----------------8-----------8-----------7-----7-----8-----8-----8-----------7--------
A|-----5-----5--6--------------------5--5--------------5-----5--6--------------------5--5--------------5-----5--6--------------------5--5-----------6--------------------5--------------
E|--3--------------------6--------------------------3--------------------6--------------------------3--------------------6--------------------------------------6-----------------------

Intro = 1 x Verse

[Verse]
Svijet je prekrio snijeg 
danas je praznik, Tin je ostao sam 
jutros se predao grad 
mi smo mrlje u bijegu na bijelome stijegu 


[Verse]
Dobar razlog za smijeh bez previse boja 
kad pobjegnu misli daleko odavde 
za spasiti svijet nemam ideju 
i sve je na kraju prekrio snijeg 

End of last Verse ("sniiijeeeeeeeeeeg")
E|--------------------------------------------
B|--------8-----------6-----4-----------4--6--
G|--------8-----------7-----3-----------3--5--
D|-----8--------------------------------------
A|--6--------------8--------3-----------3--5--
E|--------------6-----------------------------

[Chorus] 
E|--------------------------------------------------
B|--------8-----------6-----------7-----------3-----
G|--------8-----------7-----------5-----------3-----
D|-----8-----8-----8-----8-----7-----7-----5-----5--
A|--6-----------------------5-----------------------
E|--------------6-----------------------3-----------

Kao mi bio je ovdje, bio je ovdje 
netko kao mi, bio je ovdje prije nas 
netko kao mi bio je ovdje, bio je ovdje 
netko kao mi, bit ce ovdje poslije nas 

[Verse]
Sve je prekrio snijeg 
nestalim putem ti me vodis na bal 
ko davno predali grad 
mi smo uvijek na ledu, a sve je u redu 


[Verse]
Dobar razlog za smijeh bez previse boja 
kad pobjegnu misli daleko odavde 
za spasiti svijet nemam ideju 
i sve je na kraju prekrio snijeg 














tabs and chords, guitar tabs, music transcription, music technology, deep learning, music information retrieval, transcribe into tabs & chords, chordify, music renditions, songsterr, reverbnation, tabulature, bollywood chords, ultimate guitar, yousician, guitar lessons, acoustic guitar, electric guitar, guitar tuner, 911 tabs