Bass Tabs for Desangrado

(/) Slide Up  (\) Slide Down  (h) Hammer On  (p) Pull Off  (b) Bend (r) Release (v) Vibrato (x) Muted

DESANGRADO

ESCALOPINI.... PUSE LAS PISADAS CON SOLO L ACUERDA QUE MANDA.... EL BAJO VA ASI MAKINA.... PERO TU ESCALOPINI
TOCA CON LOS TONOS CON 2 CUERDAS.... EN EL VIDEO VIENE COMO ESTA EL PEX.... 

intro...


F|--------------------------------------------------------------------
C|--------------------------------------------------------------------
G|--------------------------------------------------------------------
D|--------------------------------------------------------------------
G|--6--5--3--0--0--0--0--0--0--0--0-----6--5--3--0--0--0--0--0--0--0--


F|-----------------------------------------------------
C|-----------------------------------------------------
G|-----------------------------------------------------
D|-----------------------------------------------------
G|--6--5--3--0--0--0--0--0--0--0--0-----6--6--5--3--0--


En seguida empieza la voz.... se repite solo las dos veces que pongo... Escalopini en la parte de 
Fast picking.... tu lo harias con la 7ma cuerda.... abajo de estos 2 te pngo el ejemplo


                                                                     [TREMOLO]
F|--------------------------------------------------------------------------------
C|--------------------------------------------------------------------------------
G|--------------------------------------------------------------------4--5--2--4--
D|--------------------------------------------------------------------------------
G|--0--0--0--0--0--0--0--0--3--4--3--1-----0--0--0--0--0--0--0--0-----------------

                                                                      [TREMOLO]
F|--------------------------------------------------------------------------------
C|--------------------------------------------------------------------------------
G|--------------------------------------------------------------------4--5--2--4--
D|--------------------------------------------------------------------------------
G|--0--0--0--0--0--0--0--0--3--4--3--1-----0--0--0--0--0--0--0--0-----------------


                LAS 2 PARTES DE ARRIBA TU ESCALOPINI LAS TOCARIAS ASI....


F|--------------------------------------------------------------------------------
C|--------------------------------------------------------------------------------
G|--------------------------------------------------------------------------------
D|--------------------------------------------------------------------------------
G|--0--0--0--0--0--0--0--0--3--4--3--1-----0--0--0--0--0--0--0--0-----4--5--2--4--

F|--------------------------------------------------------------------------------
C|--------------------------------------------------------------------------------
G|--------------------------------------------------------------------------------
D|--------------------------------------------------------------------------------
G|--0--0--0--0--0--0--0--0--3--4--3--1-----0--0--0--0--0--0--0--0-----4--5--2--4--


DESPUES DE ESTO.... REPETIMOS EL INTRO PERO MOCHO... 


F|-----------------------------------------------
C|-----------------------------------------------
G|-----------------------------------------------
D|-----------------------------------------------
G|--6--5--3--0--0--0--0--0--0--0--0-----6--5--3--

ENTRA LA VOZ DE NUEVO AQUI ---- 

F|-----------------------------------------------------------------------------------------
C|-----------------------------------------------------------------------------------------
G|-----------------------------------------------------------------------------------------
D|------------------------------------------------1/2--2------1/2--2------1/2--2-----5--4--
G|--4--3-----3--4--3-----3--4--3-----3--4--3-----------------------------------------------

F|-----------------------------------------------------------------------------------------
C|-----------------------------------------------------------------------------------------
G|-----------------------------------------------------------------------------------------
D|------------------------------------------------1/2--2------1/2--2------1/2--2-----6--5--
G|--4--3-----3--4--3-----3--4--3-----3--4--3-----------------------------------------------


CAMBIAMOS DE RITMO...

          [TREMOLO]           [TREMOLO]               [TREMOLO]               [TREMOLO]

F|-----------------------------------------------------------------------------------------
C|-----------------------------------------------------------------------------------------
G|-----------------------------------------------------------------------------------------
D|--------6--5-----------------4--3--------------------6--5--------------------4--3--------
G|--5--5--------8--7-----3--3--------8--7--------5--5--------8--7--------3--3--------8--7--


ESTA ES L APARTE MAS ACELERADA DE LA ROLA.... VA EN PUTIZA Y TODO ES TREMOLO FAST PICKING


F|-----------------------------------------------------------------------------------------------------
C|-----------------------------------------------------------------------------------------------------
G|--------------------5--4-----------8--7--5-----5-----------------------5--4--------------------------
D|--6--5--0--4--5--0--------6--5--------------9--------6--5--0--4--5--0--------6--5-----1--4--3--1--3--
G|-----------------------------------------------------------------------------------------------------

F|--------------------------------------------------------------
C|--------------------------------------------------------------
G|--------------------5--4-----------8--7--5-----5--------------
D|--6--5--0--4--5--0--------6--5--------------9-----------------
G|-----------------------------------------------------1--6--5--


POR ULTIMO EL CORO: DESANGRADO..... SE REPITE TODO Y FUGA.....

VA PALMEADO DONDE SALGA RAYA Y SUELTO DONDE NO...


[PM]----------------------------------------------------------|    DE   |-------|    SAN   |--------|

F|--------------------------------------------------------------------------------------------------
C|--------------------------------------------------------------------------------------------------
G|--------------------------------------------------------------------------------------------------
D|--------------------------------------------------------------------------------------------------
G|--4--4-----4--4--4--4-----4--4--4--4-----4--4--4--4-----4--4-----4-----4--4--4-----4-----4--4--4--


 GRA      |-------|   DO    

F|-----------------------------------
C|-----------------------------------
G|-----------------------------------
D|-----------------------------------
G|--4-----4--4--4--------6--5--3--5--





Paste any tab in acousterr's tab maker and we'll play it !!!
Now supports capo and sound effects for vibrato/pull-off/hammer/bends/mutes etc !!! Checkout help section
tabs and chords, guitar tabs, music transcription, music technology, deep learning, music information retrieval, transcribe into tabs & chords, chordify, music renditions, songsterr, reverbnation, tabulature, bollywood chords, ultimate guitar, yousician, guitar lessons, acoustic guitar, electric guitar, guitar tuner, 911 tabs