Bass Tabs for Maton De Eskina

(/) Slide Up  (\) Slide Down  (h) Hammer On  (p) Pull Off  (b) Bend (r) Release (v) Vibrato (x) Muted

Tabs for Song : 


    INTRO...
    
   ----------------  Tiempo en video: 01 segundos al 05 segundos.....

G|-----------------------------------------------------------
D|-----------------------------------------------------------
A|-----------------------------------------------------------
E|-----------------------------------------------------------
A|--8--7--0--5-----8--7--0--4-----8--7--0--5-----8--7--0--4--




----------------  Tiempo en video: 05 segundos al 13 segundos.....

Letra pendiente....

G|-----------------------------------------------------------------------------------------------
D|-----------------------------------------------------------------------------------------------
A|-----------------------------------------------------------------------------------------------
E|--------------------------------------------------------------------------------------6--5-----
A|--6--6-----6--5--5-----5--3--3-----3--8--7--------6--6-----6--5--5-----5--3--3-----0-----------


Letra pendiente....

G|-----------------------------------------------------------------------------------------------
D|-----------------------------------------------------------------------------------------------
A|-----------------------------------------------------------------------------------------------
E|--------------------------------------------------------------------------------------6--5-----
A|--6--6-----6--5--5-----5--3--3-----3--8--7--------6--6-----6--5--5-----5--3--3-----0-----------


----------------  Tiempo en video: 13 segundos al 17 segundos.....


    Torturando...  Degollando.... Humillando.... Acuchillando...  
G|-----------------------------------------------------------
D|-----------------------------------------------------------
A|-----------------------------------------------------------
E|-----------------------------------------------------------
A|--6--5--0--3-----6--5--0--3-----6--5--0--3-----6--5--0--3--


----------------  Tiempo en video: 17 segundos al 25 segundos.....


Letra pendiente....

G|-----------------------------------------------------------------------------------------------
D|-----------------------------------------------------------------------------------------------
A|-----------------------------------------------------------------------------------------------
E|--------------------------------------------------------------------------------------6--5-----
A|--6--6-----6--5--5-----5--3--3-----3--8--7--------6--6-----6--5--5-----5--3--3-----0-----------


Letra pendiente....

G|-----------------------------------------------------------------------------------------------
D|-----------------------------------------------------------------------------------------------
A|-----------------------------------------------------------------------------------------------
E|--------------------------------------------------------------------------------------6--5-----
A|--6--6-----6--5--5-----5--3--3-----3--8--7--------6--6-----6--5--5-----5--3--3-----0-----------


----------------  Tiempo en video: 25 segundos al 39 segundos.....


Puentesillo....

G|-----------------------------------------------------------------------------
D|-----------------------------------------------------------------------------
A|--------------8--7-----------------------------------------------------------
E|-----8--7--8--------8--7-----------------------------------------------------
A|--7--------------------------------8--8-----8--8--8-----8--5--5-----5--7--5--


----------------  Tiempo en video: 30 segundos al 35 segundos.....


G|-----------------------------------------------------------------------------
D|-----------------------------------------------------------------------------
A|--------------6--5-----------------------------------------------------------
E|-----6--5--6--------6--5-----------------------------------------------------
A|--6--------------------------------8--8-----8--8--8-----8--5--5-----5--7--5--

----------------  Tiempo en video: 35 segundos al 40 segundos.....


G|-----------------------------------------------------------------------------
D|-----------------------------------------------------------------------------
A|--------------8--7-----------------------------------------------------------
E|-----8--7--8--------8--7-----------------------------------------------------
A|--7--------------------------------8--8-----8--8--8-----8--5--5-----5--7--5--


----------------  Tiempo en video de todo el coro: 40 segundos al 51 segundos.....


    ------------ CORO:
    

           Matón....        matón de esquina...        matón...          de la cahuila!
G|--------------------------------------------------------------------------------------
D|--------------------------------------------------------------------------------------
A|--------------------------------------------------------------------------------------
E|--------5--6--------------5--6--8--6--5--------------5--6--------------5--6--8--6--5--
A|--7--7--------------7--7-----------------------7--7--------------7--7-----------------



----------------  Tiempo en video: 51 segundos al 1:01 segundos.....


    Despues del coro.... 
G|--------------------------------------------------------------------------
D|--------------------------------------------------------------------------
A|--------------------------------------------------------------------------
E|--------------------------------------------------------------------------
A|--8--4--5--7-----5--3-----8--4--5--7-----5--3-----8--4--5--7-----5--3-----


    con esto termina la primera vuelta de la rola.....
G|--------------------------------------------
D|--------------------------------------------
A|--------------------------------------------
E|--------------------------------------------
A|--8--8--8--8--8--8--8--8--8--8--8--8--8--8--

------------------- Hasta aqui llega el minuto 1:01


   ************************************************************* SE REPITE TODO DESDE EL INTRO...
   

G|-----------------------------------------------------------
D|-----------------------------------------------------------
A|-----------------------------------------------------------
E|-----------------------------------------------------------
A|--8--7--0--5-----8--7--0--4-----8--7--0--5-----8--7--0--4--


Letra pendiente....

G|-----------------------------------------------------------------------------------------------
D|-----------------------------------------------------------------------------------------------
A|-----------------------------------------------------------------------------------------------
E|--------------------------------------------------------------------------------------6--5-----
A|--6--6-----6--5--5-----5--3--3-----3--8--7--------6--6-----6--5--5-----5--3--3-----0-----------


Letra pendiente....

G|-----------------------------------------------------------------------------------------------
D|-----------------------------------------------------------------------------------------------
A|-----------------------------------------------------------------------------------------------
E|--------------------------------------------------------------------------------------6--5-----
A|--6--6-----6--5--5-----5--3--3-----3--8--7--------6--6-----6--5--5-----5--3--3-----0-----------



     Torturando...  Degollando.... Humillando.... Acuchillando...   
G|-----------------------------------------------------------
D|-----------------------------------------------------------
A|-----------------------------------------------------------
E|-----------------------------------------------------------
A|--6--5--0--3-----6--5--0--3-----6--5--0--3-----6--5--0--3--


Letra pendiente....
G|-----------------------------------------------------------------------------------------------
D|-----------------------------------------------------------------------------------------------
A|-----------------------------------------------------------------------------------------------
E|--------------------------------------------------------------------------------------6--5-----
A|--6--6-----6--5--5-----5--3--3-----3--8--7--------6--6-----6--5--5-----5--3--3-----0-----------


Letra pendiente....
G|-----------------------------------------------------------------------------------------------
D|-----------------------------------------------------------------------------------------------
A|-----------------------------------------------------------------------------------------------
E|--------------------------------------------------------------------------------------6--5-----
A|--6--6-----6--5--5-----5--3--3-----3--8--7--------6--6-----6--5--5-----5--3--3-----0-----------



    Antes del 2do coro....
G|--------------------------------------------------------------------------------
D|--------------------------------------------------------------------------------
A|--------------------------------------------------------------------------------
E|--------------9--8-----------------------7--6-----------------------------------
A|--7--7--7--7--------9--------5--5--5--5--------------6--5--3--0-----6--5--3--0--

G|--------------------------------------------------------------------
D|--------------------------------------------------------------------
A|--------------------------------------------------------------------
E|--------------9--8-----------7--6-----------5--4--------6--5--3--5--
A|--7--7--7--7--------9--------------7--------------------------------



    ------------ CORO:
    

           Matón....        matón de esquina...        matón...          de la cahuila!
G|--------------------------------------------------------------------------------------
D|--------------------------------------------------------------------------------------
A|--------------------------------------------------------------------------------------
E|--------5--6--------------5--6--8--6--5--------------5--6--------------5--6--8--6--5--
A|--7--7--------------7--7-----------------------7--7--------------7--7-----------------



G|--------------------------------------------------------------------------------------------
D|--------------------------------------------------------------------------------------------
A|--------------------------------------------------------------------------------------------
E|--------------------------------------------------------------------------------------------
A|--8--8-----8--5--5-----5--6--6-----6--3--3-----3--8--8-----8--5--5-----5--6--6-----6--3--3--

G|--------------------------------------------------------------------------------------------
D|--------------------------------------------------------------------------------------------
A|--------------------------------------------------------------------------------------------
E|--------------------------------------------------------------------------------------------
A|--3--8--8-----8--5--5-----5--6--6-----6--3--3-----3--6--6--6--6--6--6--6--6--6--6--6--6--6--



   Torturando...  Degollando.... Humillando.... Acuchillando...  
G|--------------------------------------------------------------
D|--------------------------------------------------------------
A|--------------------------------------------------------------
E|--------------------------------------------------------------
A|--6--5--0--3-----6--5--0--3-----6--5--0--3-----6--5-----0--3--






Paste any tab in acousterr's tab maker and we'll play it !!!
Now supports capo and sound effects for vibrato/pull-off/hammer/bends/mutes etc !!! Checkout help section
tabs and chords, guitar tabs, music transcription, music technology, deep learning, music information retrieval, transcribe into tabs & chords, chordify, music renditions, songsterr, reverbnation, tabulature, bollywood chords, ultimate guitar, yousician, guitar lessons, acoustic guitar, electric guitar, guitar tuner, 911 tabs