Bass Tabs for Juanita Chikana

(/) Slide Up  (\) Slide Down  (h) Hammer On  (p) Pull Off  (b) Bend (r) Release (v) Vibrato (x) Muted

Tabs for Song : 

    Intro....
G|-----------------------------------------------------------------------------------------
D|-----------------------------------------------------------------------------------------
A|-----------------------------------------------------------------------------------------
E|-----------------------------------------------------------------------------------------
B|--6--5--------3--3--3--3--3--3-----------6--5-----------3--3--3--3--3--3-----------6--5--

    Intro...
G|-----------------------------------------
D|-----------------------------------------
A|-----------------------------------------
E|-----------------------------------3--2--
B|--3--3--3--3--3--3-----------6--0--------

    Intro....
G|-----------------------------------------------------------------------------------------
D|-----------------------------------------------------------------------------------------
A|-----------------------------------------------------------------------------------------
E|-----------------------------------------------------------------------------------------
B|--6--5--------3--3--3--3--3--3-----------6--5-----------3--3--3--3--3--3-----------6--5--

    Intro...
G|-----------------------------------------
D|-----------------------------------------
A|-----------------------------------------
E|-----------------------------------3--2--
B|--3--3--3--3--3--3-----------6--0--------


  
  Empieza la letra:
  
   ------------- (FIGURA 1)
  
  
  Llego de las Vegas hacia Tecate era viejona y era de arranque
G|-----------------------------------------------------------------
D|-----------------------------------------------------------------
A|-----------------------------------------------------------------
E|---------------------------------------------------2/3--2--0--2--
B|--0--0--0--6--5-----0--0--0--3--5-----0--0--6--5-----------------

  Pinche putita nalgas gratuitas sedienta de verga y lamer verija
G|--------------------------------------------------------------
D|--------------------------------------------------------------
A|--------------------------------------------------------------
E|--------------------------------------------------6--5--3--5--
B|--0--0--0--6--5-----0--0--0--3--5-----0--0--6--5--------------


   ------------- (FIGURA 2)

  La rompio un narco-tortero   por el ano y gonorriento
G|-----------------------------------------------------
D|-----------------------------------------------------
A|-----------------------------------------------------
E|-----------------------------------------8--8--7--7--
B|--6--5--6--0--8--7--5--7-----6--5--3--0--------------

  El cabron le daba verga  ------------- FALTA LETRA AKI! -----------    
A|-----------------------------------------------------
E|-----------------------------------------8--7--5--7--
B|--6--5--6--0--8--7--5--7-----6--5--3--0--------------


    Riff de mitad de la rolita
    
   ------------- (FIGURA 3)


G|--------------------------------------------------------
D|--------------------------------------------------------
A|--------------3--2--------------------------2--1--------
E|--------6--5--------5--4--------------6--5--------5--4--
B|--2--2--------------------------2--2--------------------

   ------------- (FIGURA 4)

G|--------------------------------------------------------
D|--------------------------------------------------------
A|--------------10-9--------------------------10-9--------
E|--------8--7--------11-10-------------8--7--------11-10-
B|--2--2--------------------------2--2--------------------





    ************ Con estas 3 pisadas cortamos la rola para volver a empezar *************

G|-----------
D|-----------
A|-----------
E|-----------
B|--9--7--6--


---------------------- SE REPITE LA FIG.1 , FIG. 2




    CORO FINAL
    
    
   Juanita chicana....                           Te atascas de riata...
G|-----------------------------------------------------------------------------------------
D|-----------------------------------------------------------------------------------------
A|-----------------------------------------------------------------------------------------
E|-----------------------------------------------------------------------------------------
B|--6--6--6--5--3-----------6--6--6--5--3-----------6--6--6--5--3-----------6--6--6--5--3--


   Te encanta la monda....                         Y bien cabezona...
G|-----------------------------------------------------------------------------------------
D|-----------------------------------------------------------------------------------------
A|-----------------------------------------------------------------------------------------
E|-----------------------------------------------------------------------------------------
B|--6--6--6--5--3-----------6--6--6--5--3-----------6--6--6--5--3-----------6--6--6--5--3--


   Juanita chicana....                            Juanita chicana...
G|--------------------------------------------------------------------------
D|--------------------------------------------------------------------------
A|--------------------------------------------------------------------------
E|--------------------------------------------------------------------------
B|--6--6--6--5--3-----------6--6--6--5--3-----------6--6--6--5--3-----------


**************** El Ășltimo riff es con el mismo ritmo pero cambia un poco la pisada ************
G|--------------------
D|--------------------
A|--------------------
E|--------------------
B|--6--6--6--6--3--5--






Paste any tab in acousterr's tab maker and we'll play it !!!
Now supports capo and sound effects for vibrato/pull-off/hammer/bends/mutes etc !!! Checkout help section
tabs and chords, guitar tabs, music transcription, music technology, deep learning, music information retrieval, transcribe into tabs & chords, chordify, music renditions, songsterr, reverbnation, tabulature, bollywood chords, ultimate guitar, yousician, guitar lessons, acoustic guitar, electric guitar, guitar tuner, 911 tabs