Bass Tabs for Devorado Por Las Ratas

(/) Slide Up  (\) Slide Down  (h) Hammer On  (p) Pull Off  (b) Bend (r) Release (v) Vibrato (x) Muted



DEVORADO POR LAS RATAS


***********************************  ( Del segundo 01.... al segundo 11)  ***************************

Intro...

G|--------------------------------------------------
D|--------------------------------------------------
A|-----7--6-----6--------------7--6-----4-----------
E|-----------7-----7--6--7-----------7-----7--4--7--
A|--4-----------------------4-----------------------

Intro....

G|--------------------------------------------------
D|--------------------------------------------------
A|-----7--6-----4--------------7--6-----------------
E|-----------7-----7--4--7-----------7--------------
A|--4-----------------------4-----------4--7--9--7--


***********************************  ( Del segundo 11.... al segundo 20)  ***************************


Letra:


G|--------------------------------------------------
D|--------------------------------------------------
A|-----7--6--------7--6--------7--6-----4-----------
E|-----------7-----------7-----------7-----7--4--7--
A|--4-----------4-----------4-----------------------


Letra:


G|--------------------------------------------------
D|--------------------------------------------------
A|-----7--6--------7--6--------7--6-----4-----------
E|-----------7-----------7-----------7-----7--4--7--
A|--4-----------4-----------4-----------------------


***********************************  ( Del segundo 20.... al segundo 31)  ***************************


Pre-coro:


G|--------------------------------------------------------------------------------------------------
D|--------------------------------------------------------------------------------------------------
A|--------------------------------------------------------------------------------------------------
E|--------------------------------------------------------------------------7--7-----7--5--5-----5--
A|--4--4-----4--4--4-----4--7--7-----7--9--9-----9--6--6-----6--6--6-----6--------------------------

G|--------------------------------------------------------------------------------------------
D|--------------------------------------------------------------------------------------------
A|--------------------------------------------------------------------------------------------
E|--------------------------------------------------------------------------7--7-----7--5--4--
A|--4--4-----4--4--4-----4--7--7-----7--9--9-----9--6--6-----6--6--6-----6--------------------




Acelera el ritmo del Pre-coro.... Es el mismo que en anterior pero las pisadas mas tupidas:


***********************************  ( Del segundo 31.... al segundo 41)  ***************************


G|-----------------------------------------------------------------------------------
D|-----------------------------------------------------------------------------------
A|-----------------------------------------------------------------------------------
E|-----------------------------------------------------------------------10-9--5--7--
A|--4--4--4--4--4--4--4--4--7--7--7--7--9--9--9--9--6--6--6--6--6--6-----------------

G|-----------------------------------------------------------------------------------
D|-----------------------------------------------------------------------------------
A|-----------------------------------------------------------------------------9--8--
E|-----------------------------------------------------------------------9--8--------
A|--4--4--4--4--4--4--4--4--7--7--7--7--9--9--9--9--6--6--6--6--6--6-----------------




***********************************  ( Del segundo 41.... al segundo 52)  ***************************


Coro:

G|--------------------------------------------------
D|--------------------------------------------------
A|--------------------------------------------------
E|--------10-9--------10-9--------10-9--10-12-10-9--
A|--4--4--------4--4--------4--4--------------------


                                          Devorado por las ratas!
G|-----------------------------------------------------------------
D|-----------------------------------------------------------------
A|-----------------------------------------------------------------
E|--------10-9--------10-9--------10-9-----3--2--------5--4--------
A|--4--4--------4--4--------4--4-----------------5--4--------3--2--




--------------------- DESPUES DEL CORO ESTE PEDAZO VA SIN LETRA PA NO SATURARLA.....



***********************************  ( Del segundo 52.... al segundo 58)  ***************************



G|--------------------------------------------------
D|--------------------------------------------------
A|-----7--6--------7--6--------7--6-----4-----------
E|-----------7-----------7-----------7-----7--4--7--
A|--4-----------4-----------4-----------------------




***********************************  ( Del segundo 58.... al Minuto 1:02)  ***************************


Letra:


G|--------------------------------------------------
D|--------------------------------------------------
A|-----7--6--------7--6--------7--6-----4-----------
E|-----------7-----------7-----------7-----7--4--7--
A|--4-----------4-----------4-----------------------


Pre-coro:


***********************************  ( Del Minuto 1:02 .... al Minuto 1:13)  ***************************



G|--------------------------------------------------------------------------------------------------
D|--------------------------------------------------------------------------------------------------
A|--------------------------------------------------------------------------------------------------
E|--------------------------------------------------------------------------7--7-----7--5--5-----5--
A|--4--4-----4--4--4-----4--7--7-----7--9--9-----9--6--6-----6--6--6-----6--------------------------

G|--------------------------------------------------------------------------------------------
D|--------------------------------------------------------------------------------------------
A|--------------------------------------------------------------------------------------------
E|--------------------------------------------------------------------------7--7-----7--5--4--
A|--4--4-----4--4--4-----4--7--7-----7--9--9-----9--6--6-----6--6--6-----6--------------------


Acelera el ritmo del Pre-coro.... Es el mismo que en anterior pero las pisadas mas tupidas:


***********************************  ( Del Minuto 1:13 .... al Minuto 1:23)  ***************************


G|-----------------------------------------------------------------------------------
D|-----------------------------------------------------------------------------------
A|-----------------------------------------------------------------------------------
E|-----------------------------------------------------------------------10-9--5--7--
A|--4--4--4--4--4--4--4--4--7--7--7--7--9--9--9--9--6--6--6--6--6--6-----------------

G|-----------------------------------------------------------------------------------
D|-----------------------------------------------------------------------------------
A|-----------------------------------------------------------------------------9--8--
E|-----------------------------------------------------------------------9--8--------
A|--4--4--4--4--4--4--4--4--7--7--7--7--9--9--9--9--6--6--6--6--6--6-----------------



Coro:


***********************************  ( Del Minuto 1:23 .... al Minuto 1:33)  ***************************


G|--------------------------------------------------
D|--------------------------------------------------
A|--------------------------------------------------
E|--------10-9--------10-9--------10-9--10-12-10-9--
A|--4--4--------4--4--------4--4--------------------


                                           Devorado!

G|--------------------------------------------------
D|--------------------------------------------------
A|--------------------------------------------------
E|--------10-9--------10-9--------10-9--10-12-10-9--
A|--4--4--------4--4--------4--4--------------------


Puente......


***********************************  ( Del Minuto 1:33 .... al Minuto 1:47)  ***************************


G|-----------------------------------------------------
D|-----------------------------------------------------
A|-----------------5-----------------------5--8--4--7--
E|-----------8--7--------------------8--7--------------
A|--5--5--5-----------------5--5--5--------------------

G|-----------------------------------------------------------------------------------------
D|-----------------------------------------------------------------------------------------
A|-----------------3--2--------------------------------------------------------------------
E|-----------6--5--------------------6--5--------------------------------------------------
A|--3--3--3-----------------3--3--3--------6--3--5--2--6--3--5--2--6--3--5--2--6--3--5--2--


----------------------------- Bajon de la rolita.......


***********************************  ( Del Minuto 1:47 .... al Minuto 1:57)  ***************************


G|-----------------------------------------------------------
D|-----------------------------------------------------------
A|-----------------------------------------------------------
E|---------------7/5-----------------------------------------
A|---5\4--4--4--------4--4-----4--4--4--5--5--4--4--4--4-----

G|-----------------------------------------------
D|-----------------------------------------------
A|-----------------------------------------------
E|--------------5/4---------5/-8\5------4/-7\4--
A|---5\4--4--4--------4--4-----------------------

G|-----------------------------------------------------------
D|-----------------------------------------------------------
A|-----------------------------------------------------------
E|---------------7/5-----------------------------------------
A|---5\4--4--4--------4--4-----4--4--4--5--5--4--4--4--4-----

G|-----------------------------------------------
D|-----------------------------------------------
A|-----------------------------------------------
E|--------------5/4---------5/-8\5------4/-7\4--
A|---5\4--4--4--------4--4-----------------------



***********************************  ( Del Minuto 1:57 .... al Minuto 2:07)  ***************************


G|--------------------------------------------------------------------------------------------------
D|--------------------------------------------------------------------------------------------------
A|--------------------------------------------------------------------------------------------------
E|--5-----------5--------5-----------------------------5-----------5--------5-----------------------
A|-----4--4--4-----4--4-----4--4--4--5--4--5--4-----------4--4--4-----4--4-----4--4--4--5--4--5--4--


G|-----------------------------------------------------
D|-----------------------------------------------------
A|-----------------------------------------------------
E|--3--2--------5--4-----------3--2--------5--4--------
A|--------5--4--------3--2-----------5--4--------3--2--




***********************************  ( Del Minuto 2:07 .... al Minuto 2:17)  ***************************


Letra....

G|--------------------------------------------------
D|--------------------------------------------------
A|-----7--6--------7--6--------7--6-----4-----------
E|-----------7-----------7-----------7-----7--4--7--
A|--4-----------4-----------4-----------------------


Letra:


G|-----------------------------------------
D|-----------------------------------------
A|-----7--6--------7--6--------7--6--------
E|-----------7-----------7-----------7-----
A|--4-----------4-----------4--------------


--------------------------------------------------   Final....



***********************************  ( Del Minuto 2:17 .... al Minuto 2:20)  ***************************


   Letra:
   
    Devorado por las ratas.........
G|-----------------------------
D|-----------------------------
A|-----------------------------
E|--3--2--------3--2--5--4-----
A|--------5--4--------------4--
















Paste any tab in acousterr's tab maker and we'll play it !!!
Now supports capo and sound effects for vibrato/pull-off/hammer/bends/mutes etc !!! Checkout help section
tabs and chords, guitar tabs, music contests, music covers, songsterr, reverbnation, renditions, tabulature, bollywood chords, ultimate guitar, yousician, guitar lessons, torrins, fender, gibson, acoustic guitar, electric guitar, youtube covers, gootar, guitar tuner, A-Z tabs, 911 tabs