Bass Tabs for Machetero

(/) Slide Up  (\) Slide Down  (h) Hammer On  (p) Pull Off  (b) Bend (r) Release (v) Vibrato (x) Muted




Rolita: Machetero de Guaymas.
Ejecutada, compuesta, tocada, producida y todo lo que se escuche chingon: El charly!


                                  El machetero llego de Guaymas...
G|--------------------------------------------------------------------------
D|--------------------------------------------------------------------------
A|--------------------------------------------------------------------------
E|--------------------------------------------------------------------------
B|--2--1--4--3--2--1--0--1--------6--5--5--5--6--5--5--5--6--5--5--5--6--5--

                  
                  
                                  Ese cabron no le teme a nada...

G|--
D|--
A|--
E|--
B|--2--1--4--3--2--1--0--1--------6--5--5--5--6--5--5--5--6--5--5--5--6--5--
                                 
                                 
                                  Salio buscando  putas bien criko....
G|--
D|--
A|--
E|--
B|--2--1--4--3--2--1--0--1--------6--5--5--5--6--5--5--5--6--5--5--5--6--5--



G|--------------------------
D|--------------------------
A|--------------------------
E|--------------------------
B|--2--1--4--3--2--1--0--1--



    El las macheteaba y por el culo las violaba.... 
G|--
D|--
A|--
E|--
B|--6--5--5--5--6--5--5--5--6--5--5--5--6--5--



                                        Asesino!!!
G|--------------------------------------------------
D|--------------------------------------------------
A|--------------------------------------------6--5--
E|-----7--6--7-----5--4--5-----7--6--7-----5--------
B|--6-----------4-----------6-----------4-----------



                                        De sus putas!
G|--------------------------------------------------
D|--------------------------------------------------
A|--------------------------------------------6--5--
E|-----7--6--7-----5--4--5-----7--6--7-----5--------
B|--6-----------4-----------6-----------4-----------



                Machetero...            Machetero...
G|--------------------------------------------------
D|--------------------------------------------------
A|--------------------------------------------------
E|-----7--6--7-----5--4--5-----7--6--7-----5--4--5--
B|--6-----------4-----------6-----------4-----------



                Machetero...            De Guaymas!
G|--------------------------------------------------
D|--------------------------------------------------
A|--------------------------------------------6--5--
E|-----7--6--7-----5--4--5-----7--6--7-----5--------
B|--6-----------4-----------6-----------4-----------



     
     (AQUI VA EL SILENCIO DE TODOS Y ME QUEDO YO SOLO EN LA GUITARRA
                            CON EL INTRO)
                            
                            

    El machetero llego de Guaymas...
G|--------------------------------------------
D|--------------------------------------------
A|--------------------------------------------
E|--------------------------------------------
B|---6--5--5--5--6--5--5--5--6--5--5--5--6--5-



                                  Salio buscando  putas bien criko....
G|--
D|--
A|--
E|--
B|--2--1--4--3--2--1--0--1--------6--5--5--5--6--5--5--5--6--5--5--5--6--5--



    Machetero de Guaymas
G|--
D|--
A|--
E|--
B|--2--1--4--3--2--1--0--1-------

                                             FIN BEBES!


Paste any tab in acousterr's tab maker and we'll play it !!!
Now supports capo and sound effects for vibrato/pull-off/hammer/bends/mutes etc !!! Checkout help section
tabs and chords, guitar tabs, music contests, music covers, songsterr, reverbnation, renditions, tabulature, bollywood chords, ultimate guitar, yousician, guitar lessons, torrins, fender, gibson, acoustic guitar, electric guitar, youtube covers, gootar, guitar tuner, A-Z tabs, 911 tabs