Guitar Tabs for Dedilhado

Todas as notas foram repetidas duas vezes, toque a primeira vez com o dedo 1, e a segunda
vez com o dedo 2.

E|--4--4--3--3--2--2--1--1-----------------------------------------------------------
B|-----------------------------4--4--3--3--2--2--1--1--------------------------------
G|--------------------------------------------------------4--4--3--3--2--2--1--1-----
D|-----------------------------------------------------------------------------------
A|-----------------------------------------------------------------------------------
E|-----------------------------------------------------------------------------------

E|-----------------------------------------------------------------------------------
B|-----------------------------------------------------------------------------------
G|-----------------------------------------------------------------------------------
D|--4--4--3--3--2--2--1--1-----------------------------------------------------------
A|-----------------------------4--4--3--3--2--2--1--1--------------------------------
E|--------------------------------------------------------4--4--3--3--2--2--1--1-----

E|-----------------------------------------------------------------------------------
B|-----------------------------------------------------------------------------------
G|-----------------------------------------------------------------------------------
D|--------------------------------------------------------1--1--2--2--3--3--4--4-----
A|-----------------------------1--1--2--2--3--3--4--4--------------------------------
E|--1--1--2--2--3--3--4--4-----------------------------------------------------------

E|--------------------------------------------------------1--1--2--2--3--3--4--4-----
B|-----------------------------1--1--2--2--3--3--4--4--------------------------------
G|--1--1--2--2--3--3--4--4-----------------------------------------------------------
D|-----------------------------------------------------------------------------------
A|-----------------------------------------------------------------------------------
E|-----------------------------------------------------------------------------------


tabs and chords, guitar tabs, music contests, music covers, songsterr, reverbnation, renditions, tabulature, bollywood chords, ultimate guitar, yousician, guitar lessons, torrins, fender, gibson, acoustic guitar, electric guitar, youtube covers, gootar, guitar tuner, A-Z tabs, 911 tabs