Guitar Tabs for Dedilhado Pt2

Use o dedo 1, 2 e 3 para tocar as cordas, na mesma ordem, e o dedão,
para tocar a nota mais grave da escala.
E|-----------0-----------0-----------0-----------0-----------0-----
B|--------0-----------0-----------0-----------0-----------0--------
G|-----0-----------0-----------0-----------0-----------0-----------
D|-----------------------------------------------------------------
A|-----------------------------------------------------------------
E|--0-----------1-----------2-----------3-----------4--------------

E|-----------0-----------0-----------0-----------0-----------0-----
B|--------0-----------0-----------0-----------0-----------0--------
G|-----0-----------0-----------0-----------0-----------0-----------
D|-----------------------------------------------------------------
A|--0-----------1-----------2-----------3-----------4--------------
E|-----------------------------------------------------------------

E|-----------0-----------0-----------0-----------0-----------0-----
B|--------0-----------0-----------0-----------0-----------0--------
G|-----0-----------0-----------0-----------0-----------0-----------
D|--0-----------1-----------2-----------3-----------4--------------
A|-----------------------------------------------------------------
E|-----------------------------------------------------------------

Agora, tocando as mesmas notas, porém ao contrário:
E|-----------0-----------0-----------0-----------0-----
B|--------0-----------0-----------0-----------0--------
G|-----0-----------0-----------0-----------0-----------
D|--4-----------3-----------2-----------1--------------
A|-----------------------------------------------------
E|-----------------------------------------------------

E|-----------0-----------0-----------0-----------0-----
B|--------0-----------0-----------0-----------0--------
G|-----0-----------0-----------0-----------0-----------
D|-----------------------------------------------------
A|--4-----------3-----------2-----------1--------------
E|-----------------------------------------------------

E|-----------0-----------0-----------0-----------0-----
B|--------0-----------0-----------0-----------0--------
G|-----0-----------0-----------0-----------0-----------
D|-----------------------------------------------------
A|-----------------------------------------------------
E|--4-----------3-----------2-----------1--------------

Paste any tab in acousterr's tab maker and we'll play it !!!
Now supports capo and sound effects for vibrato/pull-off/hammer/bends/mutes etc !!! Checkout help section
tabs and chords, guitar tabs, music transcription, music technology, deep learning, music information retrieval, transcribe into tabs & chords, chordify, music renditions, songsterr, reverbnation, tabulature, bollywood chords, ultimate guitar, yousician, guitar lessons, acoustic guitar, electric guitar, guitar tuner, 911 tabs