Guitar Tabs for Céu - Palhaço

Céu - Palhaço


E|--3-----3-----3-----3-----3-----2-----
B|--3-----3-----3-----3-----3-----3-----
G|--3-----3-----3-----3-----3-----2-----
D|--5-----4-----3-----2-----1-----0-----
A|--------------------------------------
E|--------------------------------------


Sei que é doloroso um palhaço             Se afastar do palco por alguém
E|--2-----------------0-----------------0--------------------------0-----
B|--3-----------------2-----------------3--------------------------3-----
G|--4-----------------3-----------------4--------------------------1-----
D|-----------------------------------------------------------------2-----
A|-----------------------------------------------------------------2-----
E|--3-----------------2-----------------3--------------------------0-----

Volta que a plateia te reclama  Sei que choras palhaço Por alguém que não lhe ama
E|--0--------------------0-----------0-----------0-----------------2-----2-----2--
B|--1-----0--------------0-----------0-----------0-----------------0-----0-----1--
G|--0-----2--------1--2--0-----------0-----------0-----------------2-----2-----2--
D|--2-----0-----------------------0--------------------------------------------0--
A|--0-----------------------------------------4--------------------------2--------
E|--------2--------------------------------------------------------2--------------

Enxuga os olhos e me dá um abraço
E|--0-----------2-----------2--------
B|--1-----------1-----------3--3-----
G|--0-----------2-----------4--4-----
D|--2-----------0--------------3-----
A|--0--------------------------3-----
E|--------------------------3--4-----

   Não te esqueças que és um palhaaaaaaço
E|--0--------------2--------------0-----0--
B|--1--------------1--------------0-----0--
G|--0--------------2--------------2-----1--
D|--2--------------0--------------0-----2--
A|--0-----------------------------------2--
E|--------------------------------1-----0--

Faça a platéia gargalhar
E|--0-----0-----------2-----2--
B|--1-----0-----------0-----0--
G|--0-----0-----------2-----2--
D|--2-----5--------------------
A|--0-----5-----------------2--
E|--------3-----------2--------

Um palhaço não deve chorar
E|--0-----0-----0--------
B|--0-----2-----1-----5--
G|--0-----0-----0-----5--
D|--2-----2-----2-----4--
A|--2-----1-----0--------
E|--0-----------------5--

E|--3-----3-----3-----3-----3-----2-----3--
B|--3-----3-----3-----3-----3-----3-----3--
G|--3-----3-----3-----3-----3-----2-----3--
D|--5-----4-----3-----2-----1-----0--------
A|-----------------------------------------
E|--------------------------------------3--
tabs and chords, guitar tabs, music transcription, music technology, deep learning, music information retrieval, transcribe into tabs & chords, chordify, music renditions, songsterr, reverbnation, tabulature, bollywood chords, ultimate guitar, yousician, guitar lessons, acoustic guitar, electric guitar, guitar tuner, 911 tabs