Guitar Tabs for Clean Bandit - Baby Ft. Marina & Luis Fonsi

Clean Bandit - Baby ft. Marina & Luis Fonsi 

CAPO in 1st Fret

Intro

1st Guitar
E|-----16----13----10----7-----
B|--18----15----12----9------5\
G|-----------------------------
D|-----------------------------
A|-----------------------------
E|-----------------------------

E|-----------0--2--3--------------------------------------------------------
B|--0--2--3-----------------------------3--5--7-----------------------------
G|-----------------------------2--4--6-----------------------------6--7--9--
D|--------------------------------------------------------5--7--9-----------
A|--------------------------------------------------------------------------
E|--------------------------------------------------------------------------

Verse

***The chord played in the verse is Bm but on the original song it has no guitar on that part.***

   Bm 
E|--2--
B|--3--
G|--4--
D|--4--
A|--2--
E|-----


Standing here in an empty room, I saw you there and my blood ran cold

Take me back to that long September, don't know how I ever let you go

I was young, didn't know 'bout love, you were wild, couldn't get enough

Gave my heart to another lover, don't know how I ever let you go.


Pre-Chorus

Pre-Chorus Pattern -> D-DU-UDU

    Bm                  F#             Bm              A
  Find me, in another place and time. If only, if only you were mine
E|--2--------------------2--------------2--------------0-----------
B|--3--------------------2--------------3--------------2-----------
G|--4--------------------3--------------4--------------2-----------
D|--4--------------------4--------------4--------------2-----------
A|--2--------------------4--------------2--------------0-----------
E|-----------------------2-----------------------------------------

    D           F#             G
But I'm already someone else's baby
E|--2-----------2--------------3--
B|--3-----------2--------------3--
G|--2-----------3--------------4--
D|--0-----------4--------------5--
A|--------------4--------------5--
E|--------------2--------------3--

    A                       Em     A                         D    
      Guess I had my last chance,    and now this is our last dance
E|--0-----------------------0-----0--------------------------2--
B|--2-----------------------0-----2--------------------------3--
G|--2-----------------------0-----2--------------------------2--
D|--2-----------------------2-----2--------------------------0--
A|--0-----------------------2-----0-----------------------------
E|--------------------------0-----------------------------------
 
    G                                  Em                    F#
    You fell through the cracks in my hands, hard to say it's over
E|--3-----------------------------------0--------------------2--
B|--3-----------------------------------0--------------------2--
G|--4-----------------------------------0--------------------3--
D|--5-----------------------------------2--------------------4--
A|--5-----------------------------------2--------------------4--
E|--3-----------------------------------0--------------------2--

    F#
But I'm already someone else's (C'mon)
E|--2--------------------------------
B|--2--------------------------------
G|--3--------------------------------
D|--4--------------------------------
A|--4--------------------------------
E|--2--------------------------------

Chorus

   Em        A        D       Bm
   Baby,    ahh,     baby,    ahh  
E|--0--------0--------2--------2--
B|--0--------2--------3--------3--
G|--0--------2--------2--------4--
D|--2--------2--------0--------4--
A|--2--------0-----------------2--
E|--0-----------------------------

   G      F#    
   Baby, ahh... but I'm already someone else's
E|--3-----2-----------------------------------
B|--3-----2-----------------------------------
G|--4-----3-----------------------------------
D|--5-----4-----------------------------------
A|--5-----4-----------------------------------
E|--3-----2-----------------------------------

2nd Verse

***Like the 1st Verse, the chord is Bm but it has no guitar on that part.***

   Bm 
E|--2--
B|--3--
G|--4--
D|--4--
A|--2--
E|-----

All caught up in the way we were, I feel your hands getting close to mine

Don't say the words that I love to hear, the beat goes on and I close my eyes

I was young, didn't know 'bout love, you were wild, couldn't get enough

Let's leave things the way they were, you'll stay with me like a lullaby.

2nd Pre-Chorus
  
    Bm                         F# 
  Hey, sé que te gusto a ti todavía por mucho que digas
E|--2--------------------------2-----------------------
B|--3--------------------------2-----------------------
G|--4--------------------------3-----------------------
D|--4--------------------------4-----------------------
A|--2--------------------------4-----------------------
E|-----------------------------2-----------------------

    Bm                                 A
      Además puedo ver en tus ojos que no sólo quieres quedar como amigos
E|--2-----------------------------------0--------------------------------
B|--3-----------------------------------2--------------------------------
G|--4-----------------------------------2--------------------------------
D|--4-----------------------------------2--------------------------------
A|--2-----------------------------------0--------------------------------
E|-----------------------------------------------------------------------
 
   D              F#                 G                    A
     Tienes mi corazón, eres mi obsesión soy tuyo pa' siempre
E|--2--------------2-----------------3--------------------0--
B|--3--------------2-----------------3--------------------2--
G|--2--------------3-----------------4--------------------2--
D|--0--------------4-----------------5--------------------2--
A|-----------------4-----------------5--------------------0--
E|-----------------2-----------------3-----------------------
 
                     Em     A                         D    
 Guess I had my last chance,    and now this is our last dance
E|--------------------0-----0--------------------------2--
B|--------------------0-----2--------------------------3--
G|--------------------0-----2--------------------------2--
D|--------------------2-----2--------------------------0--
A|--------------------2-----0-----------------------------
E|--------------------0-----------------------------------
 
    G                                  Em                    F#
    You fell through the cracks in my hands, tell myself be stronger
E|--3-----------------------------------0--------------------2--
B|--3-----------------------------------0--------------------2--
G|--4-----------------------------------0--------------------3--
D|--5-----------------------------------2--------------------4--
A|--5-----------------------------------2--------------------4--
E|--3-----------------------------------0--------------------2--

    Bm             A        D
My heart's  like a rubber  band
E|--2--------------0--------2--
B|--3--------------2--------3--
G|--4--------------2--------2--
D|--4--------------2--------0--
A|--2--------------0-----------
E|-----------------------------

    B7                      Em     A                         D    
     And it's such a shame,    you'll always be the one who got away
E|--2-----------------------0-----0--------------------------2--
B|--4-----------------------0-----2--------------------------3--
G|--2-----------------------0-----2--------------------------2--
D|--4-----------------------2-----2--------------------------0--
A|--2-----------------------2-----0-----------------------------
E|--------------------------0-----------------------------------
 
    G                                  Em                    F#
We both know that deep down you feel the same, hard to say it's over
E|--3-----------------------------------0--------------------2--
B|--3-----------------------------------0--------------------2--
G|--4-----------------------------------0--------------------3--
D|--5-----------------------------------2--------------------4--
A|--5-----------------------------------2--------------------4--
E|--3-----------------------------------0--------------------2--

    F#
But I'm already someone else's (C'mon)
E|--2--------------------------------
B|--2--------------------------------
G|--3--------------------------------
D|--4--------------------------------
A|--4--------------------------------
E|--2--------------------------------

2nd Chorus

   Em        A        D       Bm
   Baby,    ahh,     baby,    ahh  
E|--0--------0--------2--------2--
B|--0--------2--------3--------3--
G|--0--------2--------2--------4--
D|--2--------2--------0--------4--
A|--2--------0-----------------2--
E|--0-----------------------------

   G      F#    
   Baby, ahh... but I'm already someone else's
E|--3-----2-----------------------------------
B|--3-----2-----------------------------------
G|--4-----3-----------------------------------
D|--5-----4-----------------------------------
A|--5-----4-----------------------------------
E|--3-----2-----------------------------------

Bridge 

  Em                        A              D                 G
 Wish I met you at another place and time,  If only, if only you were mine
E|--0-----------------------0--------------2-----------------3--
B|--0-----------------------2--------------3-----------------3--
G|--0-----------------------2--------------2-----------------4--
D|--2-----------------------2--------------0-----------------5--
A|--2-----------------------0--------------------------------5--
E|--0--------------------------------------------------------3--
 
   Em                             F#
        This love story ends for you and I
E|--0-----------------------------2--------
B|--0-----------------------------2--------
G|--0-----------------------------3--------
D|--2-----------------------------4--------
A|--2-----------------------------4--------
E|--0-----------------------------2--------

       F#
'Cause I'm already someone else's
E|-----2--------------------------------
B|-----2--------------------------------
G|-----3--------------------------------
D|-----4--------------------------------
A|-----4--------------------------------
E|-----2--------------------------------

3rd Chorus

   Em                                      A             D           Bm
   Baby,                                  ahh,          baby,        ahh  
  (Cada noche más te extraño,cada día sin ti me hace daño)   
E|--0--------------------------------------0--------------2-----------2--
B|--0--------------------------------------2--------------3-----------3--
G|--0--------------------------------------2--------------2-----------4--
D|--2--------------------------------------2--------------0-----------4--
A|--2--------------------------------------0--------------------------2--
E|--0--------------------------------------------------------------------


   D           Bm
   Baby,                               ahh  
(Sabes que mereces mejor, lo que sientes por ella no es amor)  
E|--2--------------------------------------2--
B|--3--------------------------------------3--
G|--2--------------------------------------4--
D|--0--------------------------------------4--
A|-----------------------------------------2--
E|--------------------------------------------

   G                                F#    
   Baby,                           ahh...
 (Por mucho que digas somos más que amigos)  
E|--3--------------------------------2-----
B|--3--------------------------------2-----
G|--4--------------------------------3-----
D|--5--------------------------------4-----
A|--5--------------------------------4-----
E|--3--------------------------------2-----

    F#    
But I'm already someone else's
(Y el tiempo se acaba en cuatro, tres, dos, uno)
E|--2-----------------------------------
B|--2-----------------------------------
G|--3-----------------------------------
D|--4-----------------------------------
A|--4-----------------------------------
E|--2-----------------------------------

tabs and chords, guitar tabs, music transcription, music technology, deep learning, music information retrieval, transcribe into tabs & chords, chordify, music renditions, songsterr, reverbnation, tabulature, bollywood chords, ultimate guitar, yousician, guitar lessons, acoustic guitar, electric guitar, guitar tuner, 911 tabs