Guitar Tabs for Halsey - Sorry

Halsey - Sorry

CAPO in 1st Fret

Intro

    C     Am    Em    G     D
E|--0-----0-----0-----3-----2--
B|--1-----1-----0-----3-----3--
G|--0-----2-----0-----4-----2--
D|--2-----2-----2-----5-----0--
A|--3-----0-----2-----5--------
E|--------------0-----3--------

Verse

    C                                                 Am           
   I've missed your calls for months it seems, don't realize how mean I can be
E|--0--------------------------------------------------0-----------------------
B|--1--------------------------------------------------1-----------------------
G|--0--------------------------------------------------2-----------------------
D|--2--------------------------------------------------2-----------------------
A|--3--------------------------------------------------0-----------------------
E|-----------------------------------------------------------------------------

         Em                                G                 D
    Cause I can sometimes treat the people that I love like jewelry
E|--------0--------------------------------3-----------------2-----
B|--------0--------------------------------3-----------------3-----
G|--------0--------------------------------4-----------------2-----
D|--------2--------------------------------5-----------------0-----
A|--------2--------------------------------5-----------------------
E|--------0--------------------------------3-----------------------

          C                                  Am   
    Cause I can change my mind each day, I didn't mean to try you on
E|--------0-----------------------------------0--------------------------------
B|--------1-----------------------------------1--------------------------------
G|--------0-----------------------------------2--------------------------------
D|--------2-----------------------------------2--------------------------------
A|--------3-----------------------------------0--------------------------------
E|-----------------------------------------------------------------------------

       Em                                     D
    But I still know your birthday, and your mother's favorite song
E|-----0--------------------------------------2--------------------
B|-----0--------------------------------------3--------------------
G|-----0--------------------------------------2--------------------
D|-----2--------------------------------------0--------------------
A|-----2-----------------------------------------------------------
E|-----0-----------------------------------------------------------

Chorus

       Am                         C                          D     Em
So I'm sorry to my unknown lover, sorry that I can't believe that anybody ever really
E|-----0--------------------------0--------------------------0-----0-----------------
B|-----1--------------------------1--------------------------3-----0-----------------
G|-----2--------------------------0--------------------------0-----0-----------------
D|-----2--------------------------2--------------------------4-----2-----------------
A|-----0--------------------------3--------------------------5-----2-----------------
E|-----------------------------------------------------------------0-----------------

    G
  Starts to fall in love with me
E|--3--------------------------
B|--3--------------------------
G|--4--------------------------
D|--5--------------------------
A|--5--------------------------
E|--3--------------------------

       Am                         C                      D     Em
So I'm sorry to my unknown lover, Sorry I could be so blind, didn't mean to leave you
E|-----0--------------------------0-----------------------0-----0-----------------
B|-----1--------------------------1-----------------------3-----0-----------------
G|-----2--------------------------0-----------------------0-----0-----------------
D|-----2--------------------------2-----------------------4-----2-----------------
A|-----0--------------------------3-----------------------5-----2-----------------
E|--------------------------------------------------------------0-----------------

             G
 And all of the things that we had behind
E|-----------3--------------------------
B|-----------3--------------------------
G|-----------4--------------------------
D|-----------5--------------------------
A|-----------5--------------------------
E|-----------3--------------------------

    Am      G/B    C     D    Em        G
        uh--uh            uh-uh     uh-uh-uh
E|--0--------3-----0-----0-----0--------3--
B|--1--------3-----1-----3-----0--------3--
G|--2--------0-----0-----0-----0--------4--
D|--2--------0-----2-----4-----2--------5--
A|--0--------2-----3-----5-----2--------5--
E|-----------------------------0--------3--

2nd Verse

    C                                   Am           
   I run away when things are good, and never really understood
E|--0-----------------------------------0-----------------------
B|--1-----------------------------------1-----------------------
G|--0-----------------------------------2-----------------------
D|--2-----------------------------------2-----------------------
A|--3-----------------------------------0-----------------------
E|--------------------------------------------------------------

         Em                                G                 D
    The way you laid your eyes on me in ways that no one ever could
E|--------0--------------------------------3-----------------2-----
B|--------0--------------------------------3-----------------3-----
G|--------0--------------------------------4-----------------2-----
D|--------2--------------------------------5-----------------0-----
A|--------2--------------------------------5-----------------------
E|--------0--------------------------------3-----------------------

          C                                  Am   
    And so it seems I broke your heart, my ignorance has struck again
E|--------0-----------------------------------0--------------------------------
B|--------1-----------------------------------1--------------------------------
G|--------0-----------------------------------2--------------------------------
D|--------2-----------------------------------2--------------------------------
A|--------3-----------------------------------0--------------------------------
E|-----------------------------------------------------------------------------

       Em                                     D
    I failed to see it from the start, and tore you open until the end
E|-----0--------------------------------------2--------------------
B|-----0--------------------------------------3--------------------
G|-----0--------------------------------------2--------------------
D|-----2--------------------------------------0--------------------
A|-----2-----------------------------------------------------------
E|-----0-----------------------------------------------------------

2nd Chorus

       Am                         C                          D     Em
So I'm sorry to my unknown lover, sorry that I can't believe that anybody ever really
E|-----0--------------------------0--------------------------0-----0-----------------
B|-----1--------------------------1--------------------------3-----0-----------------
G|-----2--------------------------0--------------------------0-----0-----------------
D|-----2--------------------------2--------------------------4-----2-----------------
A|-----0--------------------------3--------------------------5-----2-----------------
E|-----------------------------------------------------------------0-----------------

    G
  Starts to fall in love with me
E|--3--------------------------
B|--3--------------------------
G|--4--------------------------
D|--5--------------------------
A|--5--------------------------
E|--3--------------------------

       Am                         C                      D     Em
So I'm sorry to my unknown lover, Sorry I could be so blind, didn't mean to leave you
E|-----0--------------------------0-----------------------0-----0-----------------
B|-----1--------------------------1-----------------------3-----0-----------------
G|-----2--------------------------0-----------------------0-----0-----------------
D|-----2--------------------------2-----------------------4-----2-----------------
A|-----0--------------------------3-----------------------5-----2-----------------
E|--------------------------------------------------------------0-----------------

             G
 And all of the things that we had behind
E|-----------3--------------------------
B|-----------3--------------------------
G|-----------4--------------------------
D|-----------5--------------------------
A|-----------5--------------------------
E|-----------3--------------------------

Bridge

       Am                              G/B    C              D     Em
            And someone will love you            someone will love you
E|-----0--------------------------------3-----0--------------------0---
B|-----1--------------------------------3-----1--------------3-----0---
G|-----2--------------------------------0-----0--------------0-----0---
D|-----2--------------------------------0-----2--------------4-----2---
A|-----0--------------------------------2-----3--------------5-----2---
E|-----------------------------------------------------------------0---

                       G
Someone will love you,    but someone isn't me
E|--------------------3-----------------------
B|--------------------3-----------------------
G|--------------------4-----------------------
D|--------------------5-----------------------
A|--------------------5-----------------------
E|--------------------3-----------------------

       Am                              G/B    C              D     Em
            And someone will love you            someone will love you
E|-----0--------------------------------3-----0--------------------0---
B|-----1--------------------------------3-----1--------------3-----0---
G|-----2--------------------------------0-----0--------------0-----0---
D|-----2--------------------------------0-----2--------------4-----2---
A|-----0--------------------------------2-----3--------------5-----2---
E|-----------------------------------------------------------------0---

                      D
Someone will love you,    but someone isn't me
E|--------------------2-----------------------
B|--------------------3-----------------------
G|--------------------2-----------------------
D|--------------------0-----------------------
A|--------------------------------------------
E|--------------------------------------------

3rd Chorus

       Am                         C                          D     Em
So I'm sorry to my unknown lover, sorry that I can't believe that anybody ever really
E|-----0--------------------------0--------------------------0-----0-----------------
B|-----1--------------------------1--------------------------3-----0-----------------
G|-----2--------------------------0--------------------------0-----0-----------------
D|-----2--------------------------2--------------------------4-----2-----------------
A|-----0--------------------------3--------------------------5-----2-----------------
E|-----------------------------------------------------------------0-----------------

    G
  Starts to fall in love with me
E|--3--------------------------
B|--3--------------------------
G|--4--------------------------
D|--5--------------------------
A|--5--------------------------
E|--3--------------------------

       Am                         C                      D     Em
So I'm sorry to my unknown lover, Sorry I could be so blind, didn't mean to leave you
E|-----0--------------------------0-----------------------0-----0-----------------
B|-----1--------------------------1-----------------------3-----0-----------------
G|-----2--------------------------0-----------------------0-----0-----------------
D|-----2--------------------------2-----------------------4-----2-----------------
A|-----0--------------------------3-----------------------5-----2-----------------
E|--------------------------------------------------------------0-----------------

             G
 And all of the things that we had behind
E|-----------3--------------------------
B|-----------3--------------------------
G|-----------4--------------------------
D|-----------5--------------------------
A|-----------5--------------------------
E|-----------3--------------------------

Ending

       Am                              G/B    C              D     Em
            And someone will love you            someone will love you
E|-----0--------------------------------3-----0--------------------0---
B|-----1--------------------------------3-----1--------------3-----0---
G|-----2--------------------------------0-----0--------------0-----0---
D|-----2--------------------------------0-----2--------------4-----2---
A|-----0--------------------------------2-----3--------------5-----2---
E|-----------------------------------------------------------------0---

                       G
Someone will love you,    but someone isn't me
E|--------------------3-----------------------
B|--------------------3-----------------------
G|--------------------4-----------------------
D|--------------------5-----------------------
A|--------------------5-----------------------
E|--------------------3-----------------------

       Am                              G/B    C              D     Em
            And someone will love you            someone will love you
E|-----0--------------------------------3-----0--------------------0---
B|-----1--------------------------------3-----1--------------3-----0---
G|-----2--------------------------------0-----0--------------0-----0---
D|-----2--------------------------------0-----2--------------4-----2---
A|-----0--------------------------------2-----3--------------5-----2---
E|-----------------------------------------------------------------0---

                      D
Someone will love you,    but someone isn't me
E|--------------------2-----------------------
B|--------------------3-----------------------
G|--------------------2-----------------------
D|--------------------0-----------------------
A|--------------------------------------------
E|--------------------------------------------
tabs and chords, guitar tabs, music transcription, music technology, deep learning, music information retrieval, transcribe into tabs & chords, chordify, music renditions, songsterr, reverbnation, tabulature, bollywood chords, ultimate guitar, yousician, guitar lessons, acoustic guitar, electric guitar, guitar tuner, 911 tabs