Guitar Tabs for Alan Walker - Faded

Alan Walker - Faded

Capo in 2nd Fret
Intro

   C#m                      A
E|--------------------4-----9-----9-----9-----7-----
B|--5-----5-----5-----------------------------------
G|--6-----6-----6-----------------------------------
D|-----6-----6-----6-----6--------------------------
A|--4-----------4--------------7-----7-----7-----7--
E|--------------------------5-----------5-----------

   E                        B
E|--4-----4-----4-----4-----------------------------
B|--------------------------4-----4-----4-----------
G|-----4-----4-----4-----4--------------------6-----
D|-----------------------------4-----4-----4-----4--
A|--7-----------7-----------------------------------
E|--------------------------7-----------7-----------

*****All the song follows the same pattern of the intro.*****

1st Verse

(C#m)                            (A)
    You were the shadow to my light
    
             (E)          (B)
Did you feel us, another start you fade away

(C#m)                        (A)
    Afraid our aim is out of sight
   
          (E)    (B)
Wanna see us, alive

Pre-Chorus

             (C#m)   (A)
Where are you now

              (E)    (B)
Where are you now

             (C#m) 
Where are you now

                 (A)
Was it all in my fantasy

              (E)
Where are you now

               (B)
Were you only imaginary

Chorus

             (C#m)  (A)
Where are you now, atlantis
   
           (E)           (B)
Under the sea, under the sea
           
             (C#m)          (A)
Where are you now, another dream

     (E)                            (B)
The monsters running wild inside of me

         (C#m)  (A)
I'm faded

       (E)
I'm faded

    (B)           (C#m)  (A)
So lost, I'm faded

       (E)
I'm faded

    (B)
So lost, I'm faded

2nd Verse

(C#m)                           (A)
    These shallow waters, never met
    
           (E)            (B)     
What I needed I'm letting go a deeper dive

(C#m)                      (A)
    Eternal silence of the sea
    
          (E)  (B)
I'm breathing alive

Pre-Chorus

               (C#m)  (A)
Where are you now

               (E)  (B)
Where are you now

           (C#m)
Under the bright but faded lights
           
            (A)
You set my heart on fire

               (E)
Where are you now

               (B)
Where are you now

(C#m)  (A)  (E)  (B)

Chorus

             (C#m)  (A)
Where are you now, atlantis
   
           (E)           (B)
Under the sea, under the sea
           
             (C#m)          (A)
Where are you now, another dream

     (E)                            (B)
The monsters running wild inside of me

         (C#m)  (A)
I'm faded

       (E)
I'm faded

    (B)           (C#m)  (A)
So lost, I'm faded

       (E)
I'm faded

    (B)
So lost, I'm faded

Outro

   (C#m)                   (A)
E|--------------------4-----9-----9-----9-----7-----
B|--5-----5-----5-----------------------------------
G|--6-----6-----6-----------------------------------
D|-----6-----6-----6-----6--------------------------
A|--4-----------4--------------7-----7-----7-----7--
E|--------------------------5-----------5-----------

   (E)                      (B)
E|--4-----4-----4-----4-----------------------------
B|--------------------------4-----4-----4-----------
G|-----4-----4-----4-----4--------------------6-----
D|-----------------------------4-----4-----4-----4--
A|--7-----------7-----------------------------------

----------------------------------------------------------------------------------------
Useful Riffs for Fingerstyle

1st

E|-----------4--9--9--9--7--4--4--4--4--------------
B|--5--5--5-----------------------------4--4--4-----
G|-----------------------------------------------6--
D|--------------------------------------------------
A|--------------------------------------------------
E|--------------------------------------------------

2nd

E|--------------------4--4--9--9--9--9--9--9--7--7--
B|--5--5--5--5--5--5--------------------------------
G|--------------------------------------------------
D|--------------------------------------------------
A|--------------------------------------------------
E|--------------------------------------------------

E|--4--4--4--4--4--4--4--4--------------------------
B|--------------------------4--4--4--4--4--4--------
G|--------------------------------------------6--6--
D|--------------------------------------------------
A|--------------------------------------------------
E|--------------------------------------------------

3rd

E|--------------------12-11-9--9--9--7--7--7--
B|--------------9--9--------------------------
G|--9--9--9--9--------------------------------
D|--------------------------------------------
A|--------------------------------------------
E|--------------------------------------------

E|--------------------------------------------
B|--7--7--9--9--9--9--12-10-9--7--------------
G|--------------------------------8--8--8--8--
D|--------------------------------------------
A|--------------------------------------------
E|--------------------------------------------

E|--------------
B|--------------
G|--8--6--8--9--
D|--------------
A|--------------
E|--------------

----------------------------------------------------------------------------------------
Chords

   C#m    E     A     B 
E|--4-----0-----0-----2--
B|--5-----0-----2-----4--
G|--6-----1-----2-----4--
D|--6-----2-----2-----4--
A|--4-----2-----0-----2--
E|--------0--------------


tabs and chords, guitar tabs, music transcription, music technology, deep learning, music information retrieval, transcribe into tabs & chords, chordify, music renditions, songsterr, reverbnation, tabulature, bollywood chords, ultimate guitar, yousician, guitar lessons, acoustic guitar, electric guitar, guitar tuner, 911 tabs