Guitar Tabs for The Chainsmokers - This Feeling Ft Kelsea Ballerini

The Chainsmokers - This Feeling

CAPO in 1st Fret

Intro

Strum Pattern -> DUDU-DU-DUDU-DU
 
   Am7    G    C/E    F
E|--0-----3-----0-----1--
B|--1-----3-----1-----1--
G|--0-----0-----0-----2--
D|--2-----0-----2-----3--
A|--0-----2-----3-----3--
E|--------3-----0-----1--

   Am7    G    C/E    F
E|--0-----3-----0-----1--
B|--1-----3-----1-----1--
G|--0-----0-----0-----2--
D|--2-----0-----2-----3--
A|--0-----2-----3-----3--
E|--------3-----0-----1--

Verse

                  Am7       G                   C/E                   
 I'll tell you a story       Before it tells itself       
E|-----------------0--------3--------------------0-----
B|-----------------1--------3--------------------1-----
G|-----------------0--------0--------------------0-----
D|-----------------2--------0--------------------2-----
A|-----------------0--------2--------------------3-----
E|--------------------------3--------------------0-----

    F                Am7             G                C/E
 I'll lay out all my reasons,   you'll say that I need help
E|--1-----------------0--------------3-----------------0--
B|--1-----------------1--------------3-----------------1--
G|--2-----------------0--------------0-----------------0--
D|--3-----------------2--------------0-----------------2--
A|--3-----------------0--------------2-----------------3--
E|--1--------------------------------3-----------------0--

    F             Am7             G                C/E
 We all got expectations,   and sometimes they go wrong
E|--1--------------0--------------3-----------------0--
B|--1--------------1--------------3-----------------1--
G|--2--------------0--------------0-----------------0--
D|--3--------------2--------------0-----------------2--
A|--3--------------0--------------2-----------------3--
E|--1-----------------------------3-----------------0--

    F               Am7             G           C/E
 But no one listens to me, so I put it in this song
E|--1-----------------0--------------3-----------0--
B|--1-----------------1--------------3-----------1--
G|--2-----------------0--------------0-----------0--
D|--3-----------------2--------------0-----------2--
A|--3-----------------0--------------2-----------3--
E|--1--------------------------------3-----------0--

Pre-Chorus

    F          Am7             G           C/E            
 They tell me think with my head, not that thing in my chest
E|--1-----------0--------------3-----------0--------------
B|--1-----------1--------------3-----------1--------------
G|--2-----------0--------------0-----------0--------------
D|--3-----------2--------------0-----------2--------------
A|--3-----------0--------------2-----------3--------------
E|--1--------------------------3-----------0--------------

    F                 Am7             G           C/E            
      They got their hands at my neck this time
E|--1-----------------0--------------3--------------0--------------
B|--1-----------------1--------------3--------------1--------------
G|--2-----------------0--------------0--------------0--------------
D|--3-----------------2--------------0--------------2--------------
A|--3-----------------0--------------2--------------3--------------
E|--1--------------------------------3--------------0--------------

    F             Am7             G           C/E            
   But you're the one that I want, if that's really so wrong
E|--1--------------0--------------3-----------0--------------
B|--1--------------1--------------3-----------1--------------
G|--2--------------0--------------0-----------0--------------
D|--3--------------2--------------0-----------2--------------
A|--3--------------0--------------2-----------3--------------
E|--1-----------------------------3-----------0--------------

 F                   Am7             G           C/E            
    Then they don't know what this feeling is like
E|--1-----------------0--------------3-----------0--------------
B|--1-----------------1--------------3-----------1--------------
G|--2-----------------0--------------0-----------0--------------
D|--3-----------------2--------------0-----------2--------------
A|--3-----------------0--------------2-----------3--------------
E|--1--------------------------------3-----------0--------------

 F                   Am7             G           C/E         F   
     And I say yeah,  yeah,  yeah,  eah. Yeah,  yeah,  yeah,  eah
E|--1-----------------0--------------3-----------0-----------1-----
B|--1-----------------1--------------3-----------1-----------1-----
G|--2-----------------0--------------0-----------0-----------2-----
D|--3-----------------2--------------0-----------2-----------3-----
A|--3-----------------0--------------2-----------3-----------3-----
E|--1--------------------------------3-----------0-----------1-----

Chorus

 F                   Am7             G           C/E         F   
     And I say yeah,  yeah,  yeah,  eah. Yeah,  yeah,  yeah,  eah
E|--1-----------------0--------------3-----------0-----------1-----
B|--1-----------------1--------------3-----------1-----------1-----
G|--2-----------------0--------------0-----------0-----------2-----
D|--3-----------------2--------------0-----------2-----------3-----
A|--3-----------------0--------------2-----------3-----------3-----
E|--1--------------------------------3-----------0-----------1-----

2nd Verse

                  Am7           G                   C/E                   
 I'll tell them a story, they'll sit and nod their heads
E|-----------------0--------------3-----------------0-----
B|-----------------1--------------3-----------------1-----
G|-----------------0--------------0-----------------0-----
D|-----------------2--------------0-----------------2-----
A|-----------------0--------------2-----------------3-----
E|--------------------------------3-----------------0-----

    F                Am7             G                C/E
 I tell you all my secrets, and you tell all your friends
E|--1-----------------0--------------3-----------------0--
B|--1-----------------1--------------3-----------------1--
G|--2-----------------0--------------0-----------------0--
D|--3-----------------2--------------0-----------------2--
A|--3-----------------0--------------2-----------------3--
E|--1--------------------------------3-----------------0--

    F             Am7             G                C/E
 Hold on to your opinions, and stand by what you say 
E|--1--------------0--------------3-----------------0--
B|--1--------------1--------------3-----------------1--
G|--2--------------0--------------0-----------------0--
D|--3--------------2--------------0-----------------2--
A|--3--------------0--------------2-----------------3--
E|--1-----------------------------3-----------------0--
 
          F            Am7             G                 C/E
 In the end, it's my decision, so it's my fault when it ends
E|--------1--------------0--------------3-----------------0--
B|--------1--------------1--------------3-----------------1--
G|--------2--------------0--------------0-----------------0--
D|--------3--------------2--------------0-----------------2--
A|--------3--------------0--------------2-----------------3--
E|--------1-----------------------------3-----------------0--

2nd Pre-Chorus

    F          Am7             G           C/E            
 They tell me think with my head, not that thing in my chest
E|--1-----------0--------------3-----------0--------------
B|--1-----------1--------------3-----------1--------------
G|--2-----------0--------------0-----------0--------------
D|--3-----------2--------------0-----------2--------------
A|--3-----------0--------------2-----------3--------------
E|--1--------------------------3-----------0--------------

    F                 Am7             G           C/E            
      They got their hands at my neck this time
E|--1-----------------0--------------3--------------0--------------
B|--1-----------------1--------------3--------------1--------------
G|--2-----------------0--------------0--------------0--------------
D|--3-----------------2--------------0--------------2--------------
A|--3-----------------0--------------2--------------3--------------
E|--1--------------------------------3--------------0--------------

    F             Am7             G           C/E            
   But you're the one that I want, if that's really so wrong
E|--1--------------0--------------3-----------0--------------
B|--1--------------1--------------3-----------1--------------
G|--2--------------0--------------0-----------0--------------
D|--3--------------2--------------0-----------2--------------
A|--3--------------0--------------2-----------3--------------
E|--1-----------------------------3-----------0--------------

 F                   Am7             G           C/E            
    Then they don't know what this feeling is like
E|--1-----------------0--------------3-----------0--------------
B|--1-----------------1--------------3-----------1--------------
G|--2-----------------0--------------0-----------0--------------
D|--3-----------------2--------------0-----------2--------------
A|--3-----------------0--------------2-----------3--------------
E|--1--------------------------------3-----------0--------------

2nd Chorus

 F                   Am7             G           C/E         F   
     And I say yeah,  yeah,  yeah,  eah. Yeah,  yeah,  yeah,  eah
E|--1-----------------0--------------3-----------0-----------1-----
B|--1-----------------1--------------3-----------1-----------1-----
G|--2-----------------0--------------0-----------0-----------2-----   2x
D|--3-----------------2--------------0-----------2-----------3-----
A|--3-----------------0--------------2-----------3-----------3-----
E|--1--------------------------------3-----------0-----------1-----

3rd Verse

                  Am7       G                   C/E                   
 I'll tell you a story       Before it tells itself       
E|-----------------0--------3--------------------0-----
B|-----------------1--------3--------------------1-----
G|-----------------0--------0--------------------0-----
D|-----------------2--------0--------------------2-----
A|-----------------0--------2--------------------3-----
E|--------------------------3--------------------0-----

    F                Am7             G                C/E
 I'll lay out all my reasons,   you'll say that I need help
E|--1-----------------0--------------3-----------------0--
B|--1-----------------1--------------3-----------------1--
G|--2-----------------0--------------0-----------------0--
D|--3-----------------2--------------0-----------------2--
A|--3-----------------0--------------2-----------------3--
E|--1--------------------------------3-----------------0--

         F        Am7             G                C/E
 We all got expectations,   and sometimes they go wrong
E|--------1--------0--------------3-----------------0--
B|--------1--------1--------------3-----------------1--
G|--------2--------0--------------0-----------------0--
D|--------3--------2--------------0-----------------2--
A|--------3--------0--------------2-----------------3--
E|--------1-----------------------3-----------------0--

       F             Am7             G           C/E
 But no one listens to me, so I put it in this song
E|-----1--------------0--------------3-----------0--
B|-----1--------------1--------------3-----------1--
G|-----2--------------0--------------0-----------0--
D|-----3--------------2--------------0-----------2--
A|-----3--------------0--------------2-----------3--
E|-----1-----------------------------3-----------0--

3rd Pre-Chorus

    F          Am7             G           C/E            
 They tell me think with my head, not that thing in my chest
E|--1-----------0--------------3-----------0--------------
B|--1-----------1--------------3-----------1--------------
G|--2-----------0--------------0-----------0--------------
D|--3-----------2--------------0-----------2--------------
A|--3-----------0--------------2-----------3--------------
E|--1--------------------------3-----------0--------------

    F                 Am7             G           C/E            
      They got their hands at my neck this time
E|--1-----------------0--------------3--------------0--------------
B|--1-----------------1--------------3--------------1--------------
G|--2-----------------0--------------0--------------0--------------
D|--3-----------------2--------------0--------------2--------------
A|--3-----------------0--------------2--------------3--------------
E|--1--------------------------------3--------------0--------------

    F             Am7             G           C/E            
   But you're the one that I want, if that's really so wrong
E|--1--------------0--------------3-----------0--------------
B|--1--------------1--------------3-----------1--------------
G|--2--------------0--------------0-----------0--------------
D|--3--------------2--------------0-----------2--------------
A|--3--------------0--------------2-----------3--------------
E|--1-----------------------------3-----------0--------------

 F                   Am7             G           C/E            
    Then they don't know what this feeling is like
E|--1-----------------0--------------3-----------0--------------
B|--1-----------------1--------------3-----------1--------------
G|--2-----------------0--------------0-----------0--------------
D|--3-----------------2--------------0-----------2--------------
A|--3-----------------0--------------2-----------3--------------
E|--1--------------------------------3-----------0--------------

 F                   Am7             G           C/E         F   
     My friends say: no, -o, -o     no, -o -o -o
E|--1-----------------0--------------3-----------0-----------1-----
B|--1-----------------1--------------3-----------1-----------1-----
G|--2-----------------0--------------0-----------0-----------2-----
D|--3-----------------2--------------0-----------2-----------3-----
A|--3-----------------0--------------2-----------3-----------3-----
E|--1--------------------------------3-----------0-----------1-----

 F                   Am7             G           C/E         F   
     My friends say: no, -o, -o     no, -o -o -o
E|--1-----------------0--------------3-----------0-----------1-----
B|--1-----------------1--------------3-----------1-----------1-----
G|--2-----------------0--------------0-----------0-----------2-----
D|--3-----------------2--------------0-----------2-----------3-----
A|--3-----------------0--------------2-----------3-----------3-----
E|--1--------------------------------3-----------0-----------1-----

3rd Chorus

 F                   Am7             G           C/E         F   
       I say yeah,  yeah,  yeah,  eah. Yeah,  yeah,  yeah,  eah
E|--1-----------------0--------------3-----------0-----------1-----
B|--1-----------------1--------------3-----------1-----------1-----
G|--2-----------------0--------------0-----------0-----------2-----  4x
D|--3-----------------2--------------0-----------2-----------3-----
A|--3-----------------0--------------2-----------3-----------3-----
E|--1--------------------------------3-----------0-----------1-----
tabs and chords, guitar tabs, music transcription, music technology, deep learning, music information retrieval, transcribe into tabs & chords, chordify, music renditions, songsterr, reverbnation, tabulature, bollywood chords, ultimate guitar, yousician, guitar lessons, acoustic guitar, electric guitar, guitar tuner, 911 tabs