Guitar Tabs for Cots

(/) Slide Up  (\) Slide Down  (h) Hammer On  (p) Pull Off  (b) Bend (r) Release (v) Vibrato (x) Muted

Tabs for Song : 
BPM : 200

Song lyrics here 
E|--------------
B|--------------
E|--------9--10-
B|-----9--------
F|--7-----------
C|--------------

E|-----------------------------
B|-----------------------------
E|-----------------------9--10-
B|--------------------9--------
F|-----------------7-----------
C|-----------------------------

E|--------------------------------
B|--------------------------------
E|--------------------------9--10-
B|-----------------------9--------
F|--------------------7-----------
C|--------------------------------

E|--------------------------------------------
B|--------------------------------------------
E|--------------------------------------------
B|--------------------6--7--6-----6-----------
F|-----------------7-----------8-----8--7--5--
C|--------------------------------------------

Song lyrics here 
E|--
B|--
E|--
B|--
F|--
C|--

Use manual mode to free up cursor. Paste any tab in acousterr tab maker and we'll play it !!!

Bass Tabs for Cots






E|--------9--10-
B|-----9--------
F|--7-----------
C|--------------



E|-----------------------9--10-
B|--------------------9--------
F|-----------------7-----------
C|-----------------------------



E|--------------------------9--10-
B|-----------------------9--------
F|--------------------7-----------
C|--0-----------------------------



E|--------------------------------------------
B|--------------------6--7--6-----6-----------
F|-----------------7-----------8-----8--7--5--
C|--0-----------------------------------------




Guitar Tabs for Cots






C|-----
G|-----
E|--9--
B|--9--
F|--7--
C|-----

C|--------------------
G|--------------------
E|-----------------9--
B|-----------------9--
F|-----------------7--
C|--------------------

C|-----------------------
G|-----------------------
E|--------------------9--
B|--------------------9--
F|--------------------7--
C|-----------------------

C|--------------------------------------------
G|--------------------------------------------
E|-----------------------------------------7--
B|-----------------2--6--7--6--3--6--3--2--7--
F|-----------------2--6--7--6--3--6--3--2--5--
C|--0--------------0--4--5--4--1--4--1--0-----













tabs and chords, guitar tabs, music transcription, music technology, deep learning, music information retrieval, transcribe into tabs & chords, chordify, music renditions, songsterr, reverbnation, tabulature, bollywood chords, ultimate guitar, yousician, guitar lessons, acoustic guitar, electric guitar, guitar tuner, 911 tabs