Guitar Tabs for Cmajor

C Major Pos.1

E|--------------------------------1--3--5--3--1--------------------------------------------------
B|--------------------------3--5-----------------5--3--------------------------------------------
G|-----------------2--4--5-----------------------------5--4--2-----------------------------------
D|--------2--3--5-----------------------------------------------5--3--2--------------------------
A|--3--5-----------------------------------------------------------------5--3--2-----------2--3--
E|--------------------------------------------------------------------------------5--3--5--------


C Major Pos.2
 
E|-----------------------------------3--5--7--5--3-----------------------------------------------------
B|-----------------------------5--6-----------------6--5-----------------------------------------------
G|--------------------4--5--7-----------------------------7--5--4--------------------------------------
D|-----------3--5--7-----------------------------------------------7--5--3-----------------------------
A|--3--5--7-----------------------------------------------------------------7--5--3-----------------3--
E|-----------------------------------------------------------------------------------7--5--3--5--7-----


C Major Pos.3


E|--------------------------------------5--7--8--7--5--------------------------------------
B|--------------------------------6--8-----------------8--6--------------------------------
G|-----------------------5--7--9-----------------------------9--7--5-----------------------
D|--------------5--7--9-----------------------------------------------9--7--5--------------
A|-----5--7--8-----------------------------------------------------------------8--7--5-----
E|--8-----------------------------------------------------------------------------------8--


C Major Pos.4


E|-----------------------------------------7--8--10-8--7-----------------------------------------
B|-----------------------------------8--10----------------10-8-----------------------------------
G|--------------------------7--9--10----------------------------10-9--7--------------------------
D|-----------------7--9--10----------------------------------------------10-9--7-----------------
A|--------7--8--10----------------------------------------------------------------10-8--7--------
E|--8--10----------------------------------------------------------------------------------10-8--


C Major Pos.5


E|--------------------------------------------8--10-12-10-8--------------------------------------------
B|--------------------------------------10-12----------------12-10-------------------------------------
G|-----------------------------9--10-12----------------------------12-10-9-----------------------------
D|--------------------9--10-12----------------------------------------------12-10-9--------------------
A|-----------8--10-12----------------------------------------------------------------12-10-8-----------
E|--8--10-12----------------------------------------------------------------------------------12-10-8--







tabs and chords, guitar tabs, music transcription, music technology, deep learning, music information retrieval, transcribe into tabs & chords, chordify, music renditions, songsterr, reverbnation, tabulature, bollywood chords, ultimate guitar, yousician, guitar lessons, acoustic guitar, electric guitar, guitar tuner, 911 tabs