Bass Tabs for Checkout

(/) Slide Up  (\) Slide Down  (h) Hammer On  (p) Pull Off  (b) Bend (r) Release (v) Vibrato (x) Muted

Checkout 
BPM : 130

Verse 1
G|--------------------------------------------------------------------------------------------------
D|--------------------------------------------------------------------------------------------------
A|-----------5-----------5-----------5-----------5-----------5-----------5-----------5-----------5--
E|--5--5--5-----5--5--5-----5--5--5-----5--5--5-----5--5--5-----5--5--5-----5--5--5-----5--5--5-----

G|--------------------------------------------------------------------------------------------------
D|--------------------------------------------------------------------------------------------------
A|-----------5-----------5-----------5-----------5-----------5-----------5-----------5--------5--7--
E|--5--5--5-----5--5--5-----5--5--5-----5--5--5-----5--5--5-----5--5--5-----5--5--5-----5--8--------




Chorus
G|--------------------------------------------------------------------------------------------------
D|--------------------------------------------------------------------------------------------------
A|--8--8--8--8--8--8--8--8--8--8--8--8--8--7--5--------------5-----------5-----------5--------5--7--
E|-----------------------------------------------8--5--5--5-----5--5--5-----5--5--5-----5--8--------

G|--------------------------------------------------------------------------------------------------
D|--------------------------------------------------------------------------------------------------
A|--8--8--8--8--8--8--8--8--8--8--8--8--8--7--5--------------5-----------5-----------5--------5--7--
E|-----------------------------------------------8--5--5--5-----5--5--5-----5--5--5-----5--8--------

G|--------------------------------------------------------------------------------------------------
D|--------------------------------------------------------------------------------------------------
A|--8--8--8--8--8--8--8--8--8--8--8--8--8--8--8--8--------------------------------------------------
E|--------------------------------------------------7--7--7--7--7--7--7--7--7--7--7--7--7--7--7--7--

G|--------------------------------------------------------------------------------------------------
D|--------------------------------------------------------------------------------------------------
A|-----------5-----------5-----------5-----------5-----------5-----------5-----------5--------------
E|--5--5--5-----5--5--5-----5--5--5-----5--5--5-----5--5--5-----5--5--5-----5--5--5-----5-----------




Verse 2
G|--------------------------------------------------------------------------------------------------
D|--------------------------------------------------------------------------------------------------
A|-----------5-----------5-----------5-----------5-----------5-----------5-----------5-----------5--
E|--5--5--5-----5--5--5-----5--5--5-----5--5--5-----5--5--5-----5--5--5-----5--5--5-----5--5--5-----

G|--------------------------------------------------------------------------------------------------
D|--------------------------------------------------------------------------------------------------
A|-----------5-----------5-----------5-----------5-----------5-----------5-----------5--------5--7--
E|--5--5--5-----5--5--5-----5--5--5-----5--5--5-----5--5--5-----5--5--5-----5--5--5-----5--8--------




Chorus
G|--------------------------------------------------------------------------------------------------
D|--------------------------------------------------------------------------------------------------
A|--8--8--8--8--8--8--8--8--8--8--8--8--8--7--5--------------5-----------5-----------5--------5--7--
E|-----------------------------------------------8--5--5--5-----5--5--5-----5--5--5-----5--8--------

G|--------------------------------------------------------------------------------------------------
D|--------------------------------------------------------------------------------------------------
A|--8--8--8--8--8--8--8--8--8--8--8--8--8--7--5--------------5-----------5-----------5--------5--7--
E|-----------------------------------------------8--5--5--5-----5--5--5-----5--5--5-----5--8--------

G|--------------------------------------------------------------------------------------------------
D|--------------------------------------------------------------------------------------------------
A|--8--8--8--8--8--8--8--8--8--8--8--8--8--8--8--8--------------------------------------------------
E|--------------------------------------------------7--7--7--7--7--7--7--7--7--7--7--7--7--7--7--7--

G|--------------------------------------------------------------------------------------------------
D|--------------------------------------------------------------------------------------------------
A|-----------5-----------5-----------5-----------5-----------5-----------5-----------5-----------5--
E|--5--5--5-----5--5--5-----5--5--5-----5--5--5-----5--5--5-----5--5--5-----5--5--5-----5--5--5-----



Bridge
G|--------------------------------------------------------------------------------------------------
D|--------------------------------------------------------------------------------------------------
A|--------------------------------------------------------------------------------------------------
E|--5---5/12-12-5---5/12-12-5---5/12-12-5---5/12-12-5---5/12-12-5---5/12-12-5---5/12-12-5---5/12-12-

G|--------------------------------------------------------------------------------------------------
D|--------------------------------------------------------------------------------------------------
A|--------------------------------------------------------------------------------------------------
E|--8--8--8--8--8--8--8--8--7--7--7--7--7--7--7--7--5--5--5--5--5--5--5--5--5--5--5--5--5--5--5--5--

G|--------------------------------------------
D|--------------------------------------------
A|--------------------------------------------
E|--8--8--8--8--8--8--8--8--7--7--7--7--7--




Chorus
G|--------------------------------------------------------------------------------------------------
D|--------------------------------------------------------------------------------------------------
A|--8--8--8--8--8--8--8--8--8--8--8--8--8--7--5--------------5-----------5-----------5--------5--7--
E|-----------------------------------------------8--5--5--5-----5--5--5-----5--5--5-----5--8--------

G|--------------------------------------------------------------------------------------------------
D|--------------------------------------------------------------------------------------------------
A|--8--8--8--8--8--8--8--8--8--8--8--8--8--7--5--------------5-----------5-----------5--------5--7--
E|-----------------------------------------------8--5--5--5-----5--5--5-----5--5--5-----5--8--------

G|--------------------------------------------------------------------------------------------------
D|--------------------------------------------------------------------------------------------------
A|--8--8--8--8--8--8--8--8--8--8--8--8--8--8--8--8--------------------------------------------------
E|--------------------------------------------------7--7--7--7--7--7--7--7--7--7--7--7--7--7--7--7--

G|--------------------------------------------------------------------------------------------------
D|--------------------------------------------------------------------------------------------------
A|-----------5-----------5-----------5-----------5-----------5-----------5-----------5-----------5--
E|--5--5--5-----5--5--5-----5--5--5-----5--5--5-----5--5--5-----5--5--5-----5--5--5-----5--5--5-----



Outro
G|-----------------------------------------------------------------------------------------------------
D|-----------------------------------------------------------------------------------------------------
A|-----------------------------------------------------------------------------------------------------
E|--5---5/12-12-5---5/12-12-5---5/12-12-5---5/12-12-5---5/12-12-5---5/12-12-5---5/12-12-5---5/12-12-5--

Song lyrics here 
G|--
D|--
A|--
E|--

Use manual mode to free up cursor. Paste any tab in acousterr tab maker and we'll play it !!!
tabs and chords, guitar tabs, music transcription, music technology, deep learning, music information retrieval, transcribe into tabs & chords, chordify, music renditions, songsterr, reverbnation, tabulature, bollywood chords, ultimate guitar, yousician, guitar lessons, acoustic guitar, electric guitar, guitar tuner, 911 tabs