Guitar Tabs for Chakori

(/) Slide Up  (\) Slide Down  (h) Hammer On  (p) Pull Off  (b) Bend (r) Release (v) Vibrato (x) Muted

Tabs & Chords
BPM : 133.0
Check Track 2 for Chord Positions 

          E                    A           Bm          A                                E     
E|-----0--0-----0-----------------------------------------------------------------------------
B|--------------------0-----------------------------------0-----0-----------------------------
G|-----------------------------------------------------------------------6--------------------
D|--------------------------------------------------4--4-----------7--------------7--6-----4--
A|-----------------------7-----------7-----------7-----------------------------0--------------
E|-----------------------------7-----------7--7-----------------------------------------7-----

                                                       A                          G           A  
E|--------------------------------------------0--------------------0-----------------------------
B|--------------------------------------------------------------------------------0-----0-----0--
G|-----------------------------------------------------------------------------------------------
D|--6--------------4--4--6-----6--4--6--7--------4--------------------------4--------------------
A|--------7-----7-----------------------------------7--7-----7-----------7-----------------------
E|-----------------------------------------------------------------------------------------------

                   G        A                 G        
E|-----------------------------------------------------
B|--------------------------------------------------0--
G|--6--6-----6-----7--7-----6--7-----6--------7--------
D|--------------------------------------7--------7-----
A|-----------------------------------------------------
E|-----------------------------------------------------

Guitar Tabs for Chakori






          E                    A           Bm          A                                E     
E|--------0--------------------0-----------2-----------0--------------------------------0-----
B|--------0--------------------2-----------3-----------2--------------------------------0-----
G|--------1--------------------2-----------4-----------2--------------------------------1-----
D|--------2--------------------2-----------4-----------2--------------------------------2-----
A|--------2--------------------0-----------2-----------0--------------------------------2-----
E|--------0-----------------------------------------------------------------------------0-----

                                                       A                          G           A  
E|-----------------------------------------------------0--------------------------3-----------0--
B|-----------------------------------------------------2--------------------------3-----------2--
G|-----------------------------------------------------2--------------------------4-----------2--
D|-----------------------------------------------------2--------------------------5-----------2--
A|-----------------------------------------------------0--------------------------5-----------0--
E|--------------------------------------------------------------------------------3--------------

                   G        A                 G        
E|-----------------3--------0-----------------3--------
B|-----------------3--------2-----------------3--------
G|-----------------4--------2-----------------4--------
D|-----------------5--------2-----------------5--------
A|-----------------5--------0-----------------5--------
E|-----------------3--------------------------3--------

tabs and chords, guitar tabs, music transcription, music technology, deep learning, music information retrieval, transcribe into tabs & chords, chordify, music renditions, songsterr, reverbnation, tabulature, bollywood chords, ultimate guitar, yousician, guitar lessons, acoustic guitar, electric guitar, guitar tuner, 911 tabs