Guitar Tabs for Cannival

(/) Slide Up  (\) Slide Down  (h) Hammer On  (p) Pull Off  (b) Bend (r) Release (v) Vibrato (x) Muted

Tabs for Song : 
BPM : 182

Song lyrics here
D|-------------------------------------------------------------------
A|--------------------------------------------------------------------
F|--------------------------------------------------------------------
C|--------------------------------------------------------------------
G|--0-----0--0--1--3--0-----0--0--1--3--0-----0--0--1--3--6--------5--
C|--0-----0--0--1--3--0-----0--0--1--3--0-----0--0--1--3--6--------5--

Song lyrics here
D|--------------------------------------------------------=-----------
A|--------------------------------------------------------------------
F|--------------------------------------------------------------------
C|--------------------------------------------------------------------
G|--0-----0--0--1--3--0-----0--0--1--3--0-----0--0--1--3--6--------5--
C|--0-----0--0--1--3--0-----0--0--1--3--0-----0--0--1--3--------------

D|--------------------------------------------------------------------
A|--------------------------------------------------------------------
F|--------------------------------------------------------------------
C|--------------------------------------------------------------------
G|--0-----0--0--1--3--0-----0--0--1--3--0-----0--0--1--3--6--------5--
C|--0-----0--0--1--3--0-----0--0--1--3--0-----0--0--1--3--6--------5--

At the same time...

LEAD
D|-----------------------
A|-----------------------
F|-----------------------
C|-----------------------
G|--6--5--4--3--5--8--7--
C|-----------------------

RHY
D|-----------------------
A|-----------------------
F|-----------------------
C|--8--7--6--5--7--10-9--
G|-----------------------
C|-----------------------

D|--------------------------------------------------------------------------------------------------------
A|--------------------------------------------------------------------------------------------------------
F|--------------------------------------------------------------------------------------------------------
C|--7--------7--5-----2-----------------------------------------------------------------------------------
G|--5--------5--3-----0-----3--0--0-----0-----0-----------0-----0-----0-----0-----0-----------0-----------
C|--------------------------3--0--0-----0-----0-----------0-----0-----0-----0-----0-----------0-----------

D|-----------------------------\-
A|-----------------------------
F|-----------------------------
C|--7--------7--10----9-----6--
G|--5--------5--8-----7-----4--
C|-----------------------------

Paste any tab in acousterr's tab maker and we'll play it !!!
Now supports capo and sound effects for vibrato/pull-off/hammer/bends/mutes etc !!! Checkout help section
tabs and chords, guitar tabs, music transcription, music technology, deep learning, music information retrieval, transcribe into tabs & chords, chordify, music renditions, songsterr, reverbnation, tabulature, bollywood chords, ultimate guitar, yousician, guitar lessons, acoustic guitar, electric guitar, guitar tuner, 911 tabs