Guitar Tabs for Camille

(/) Slide Up  (\) Slide Down  (h) Hammer On  (p) Pull Off  (b) Bend (r) Release (v) Vibrato (x) Muted

Tabs for Song : 
BPM : 200

Fingers touch, hold him like a grudge 
E|----------------------------------------8--8-10-/13
B|-------------8-8b(9)-8--8-----------8-10-10-------
G|---------7-10----------10---10----10---------------
D|--------------------------------------------------
A|--------------------------------------------------
D|--------------------------------------------------

Does anyone remeber your name? Camille, Camille....   
E|--17---15---17----------15b(16)(16)(16)(16)(16)(16)15-----
B|------------------15----------------------------------18--
G|----------------------------------------------------------
D|----------------------------------------------------------
A|----------------------------------------------------------
D|----------------------------------------------------------


Does anyone recognize your face? When you were 19...
E|--20---18---20----17-----15b(16)(16)(16)(16)(16)(16)15---
B|-------------------------------------------------------18
G|---------------------------------------------------------
D|---------------------------------------------------------
A|---------------------------------------------------------
E|---------------------------------------------------------

Everyone said you went insane, Camille Camille... 
E|-----17---------17------17--------17-----20-20-20-20-20-20-20-20-15b(16)(16)(16)(16)(16)(16)15--
B|---18--18-20-18-------18--18-20-18------------------------------------------------------------18
G|------------------19----------------18----------------------------------------------------------
D|------------------------------------------------------------------------------------------------
A|------------------------------------------------------------------------------------------------
D|------------------------------------------------------------------------------------------------

Did it only feed the fire in your brain? Camille 
E|-----17---------17------17--------20--16-16-16 16-16-16-16-16-----------------------------
B|---18--18-20-18------18---18-20-18--------------------------------------------------------
G|------------------19----------------18----------------------------------------------------
D|--------------------------------------------------------------5--5--6--6------------------
A|--------------------------------------------------------------5--5--6--6------------------
D|--------------------------------------------------------------3--3--4--4------------------

Ooo.. you shoulda had it better.. I'm sorry baby. Ooo.. you shoulda had it better... so sorry baby 
E|-----------------------------------------------------------------------------
B|-----------------------------------------------------------------------------
G|--------------------------------------------------------5-----6------6---6-7-
D|--------3-5b(6)--3------- 3--------------------3--7-------7-----7---7--7-----
A|--5----5-----------5----3---5---------------5--------------------------------
D|---------------------------------3--2--0-------------------------------------

Ooo.. you shoulda had it better than you did when you were young...
E|------------5----------------8-9-10-----8--10---13-15-17--19191919192020202021212121212121
B|----6-8-6-8-------6-8-6-8 10---------8----------------------------------------------------
G|--7----------6--7-------------------------------------------------------------------------
D|------------------------------------------------------------------------------------------
A|------------------------------------------------------------------------------------------
D|-----------------------------------------------------------------------------------------=

Camille...Camille... How does it feel?
E|-13-12-10-12------------------------------------       E|-----------------------------------------------------
B|------------13-11-13-11-10----------10----------       B|-11-10--------10-----13-12-10------------------------
G|---------------------------12-10-12----12-10----       G|------12-10-12--12-10---------12b(13)(13)(!3)(13)(13)
D|------------------------------------------------  x 3  D|-----------------------------------------------------
A|------------------------------------------------       A|-----------------------------------------------------
D|------------------------------------------------       D|-----------------------------------------------------
tabs and chords, guitar tabs, music transcription, music technology, deep learning, music information retrieval, transcribe into tabs & chords, chordify, music renditions, songsterr, reverbnation, tabulature, bollywood chords, ultimate guitar, yousician, guitar lessons, acoustic guitar, electric guitar, guitar tuner, 911 tabs