Guitar Tabs for Caillu

(/) Slide Up  (\) Slide Down  (h) Hammer On  (p) Pull Off  (b) Bend (r) Release (v) Vibrato (x) Muted

Tabs for Song : 

Song lyrics here
E|--0-----------------2--------------------0--------------------------4
B|-----2--0-----0--2-----2--0-----0--2--------2--0-----0--2-----------
G|-----------2-----------------2--------------------2-----------------
D|-----------------------------------------------------------4--2-----
A|--------------------------------------------------------------------
E|--------------------------------------------------------------------

E|-----0--0-----------------2--2-----------------0--0-----------------------
B|-----------2--0-----0--2--------2--0-----0--2--------2--0-----0--2--------
G|-----------------2--------------------2--------------------2--------------
D|--------------------------------------------------------------------4--2--
A|--------------------------------------------------------------------------
E|--0-----------------------------------------------------------------------
q   
E|--------------------
B|--------------------
G|-----2--0--2--------
D|--4-----------4-----
A|--------------------
E|--------------------
tabs and chords, guitar tabs, music transcription, music technology, deep learning, music information retrieval, transcribe into tabs & chords, chordify, music renditions, songsterr, reverbnation, tabulature, bollywood chords, ultimate guitar, yousician, guitar lessons, acoustic guitar, electric guitar, guitar tuner, 911 tabs