Guitar Tabs for Bts-the Truth Untold

(/) Slide Up  (\) Slide Down  (h) Hammer On  (p) Pull Off  (b) Bend (r) Release (v) Vibrato (x) Muted

Tabs for Song : Capo on 4th Fret

Song lyrics here
E|-----------0--------------0-----------------0--------------------------1--0--------3--0--0-----0--------------------
B|--1--1--3-----3--1--3--------3--1--1--3--1-----1--1--3--1--3--1-----------------1-----------3-----3--1--------------
G|--0--------------------0-----------------2-----------------------0--2--------0--------------0-----------2-----------
D|-----------------------2-----------------------------------------------------2--------------0--------------3--------
A|--3--------------------------------------------------------------------------3--------------------------------------
E|-----------------------0-----------------1--------------------------------------------------3--------------1--------

E|-----------------0--------------0-----------------0--------------0--------1--0--------3--0--0-----0-----------------
B|--1--1--3--1--3-----3--1--3--------3--1--1--3--1-----3--1--1--3--------------------1-----------3-----3--1--1--------
G|--0--------------------------0-----------------2--------------------0--2--------0--------------0--------------2-----
D|-----------------------------2--------------------------------------------------2--------------0-----------------3--
A|--3-----------------------------------------------------------------------------3-----------------------------------
E|-----------------------------0-----------------1-----------------------------------------------3-----------------1--

E|-----------------------0-----------------------0--------------------------------------------------------------------
B|--------------0--1--3--0--0--0--0--0-----------0--0--0--0--0-----------0--1--3--------------------------1--3--1-----
G|------2\4--2--0--2--0--0--------------2--0-----0--------------2--0--2--0--2--0---4\2--0--------0--0--2-----------0--
D|-----------3--0--------------2-----------------------2--------------3--0--------------------------------------------
A|--3--------------0--------------------------------------------------------0-----------------------------------------
E|-----------1--3-----3--0-----------------------0--------------------1--3-----3--------------------------------------

E|--------------------------------------------------------------------3--0--0--0--------------------------------------
B|--5--5---5\3-----3--3---3\1-----3--1--3--1--3---3\5--3--1-----------------------3--3---3\5--3--1-----------1--3--1--
G|--------------0--------------2--------------0--------------2--0-----------------0--------------2--0--0--2-----------
D|--------------0--------------3-----------------------------------2--------------------------------------------------
A|-----------------------------------------------------------------3--------------------------------------------------
E|--------------3--------------1--------------3-----------------------------------3--------------1--------------------

E|-----------------------------------------------------------------------3--0--0--0-----------------------------1--0--
B|-----5--5---5/3-----3--3---3\1-----3--1--3--1--3---3\5--3--1-----------------------3--3---3\5--3--1-----------------
G|--0--------------0--------------2--------------0--------------2--0-----------------0--------------2--0--0--2--------
D|-----------------0--------------3-----------------------------------2-----------------------------------------------
A|--------------------------------------------------------------------3-----------------------------------------------
E|-----------------3--------------1--------------3-----------------------------------3--------------1-----------------

NEXT FEW VERSE IS THE SAME BUT CAN ADD IN SOME WRIST THUMPS OR SLAPS AD SONG GRADUATES

Paste any tab in acousterr's tab maker and we'll play it !!!
Now supports capo and sound effects for vibrato/pull-off/hammer/bends/mutes etc !!! Checkout help section
tabs and chords, guitar tabs, music transcription, music technology, deep learning, music information retrieval, transcribe into tabs & chords, chordify, music renditions, songsterr, reverbnation, tabulature, bollywood chords, ultimate guitar, yousician, guitar lessons, acoustic guitar, electric guitar, guitar tuner, 911 tabs