Guitar Tabs for Truth About Me

(/) Slide Up  (\) Slide Down  (h) Hammer On  (p) Pull Off  (b) Bend (r) Release (v) Vibrato

Tabs for Song : 
CAPO on 4th Fret
Song lyrics here
E|--------------------------------------------------------------------------------------------
B|--------------------------------------------------------------------------------------------
G|--------------------------------------------------------------------------------------------
D|--------9--9-----9--9-----9--9-----9--9-----9--9------9---8--8--8--8--8--8--9--9--9--9--9---
A|---9h11-----9h11------9h11----9h11-----9h11------9h11-----9--9--9--9--9--9--7--7--7--7----7-
E|--------------------------------------------------------------------------------------------

E|---------------------------------------------------------------------------------------------
B|---------------------------------------------------------------------------------------------
G|---------------------------------------------------------------------------------------------
D|--------9--9-----9--9-----9--9-----9--9-----9--9------9---8--8--8--8--8--8--9--9--9--9--9----
A|---9h11-----9h11------9h11----9h11-----9h11------9h11-----9--9--9--9--9--9--7--7--7--7----7--
E|---------------------------------------------------------------------------------------------

Song lyrics here
E|--
B|--
G|--
D|--
A|--
E|--

Now supports capo and sound effects for vibrato/pull-off/hammer/bends etc !!! Checkout help section
tabs and chords, guitar tabs, music transcription, music technology, deep learning, music information retrieval, transcribe into tabs & chords, chordify, music renditions, songsterr, reverbnation, tabulature, bollywood chords, ultimate guitar, yousician, guitar lessons, acoustic guitar, electric guitar, guitar tuner, 911 tabs