Guitar Tabs for Bts - The Truth Untold

(/) Slide Up  (\) Slide Down  (h) Hammer On  (p) Pull Off  (b) Bend (r) Release (v) Vibrato (x) Muted

Tabs for Song : 

Song lyrics here
E|---------0h-2p0-----0------------0h-2p0-----0---------0h2--0--0--2-----------3--2--------5--2--2---0h-2p0-----------
B|-----3-----------3-----3-----3-----------3-----3------3h------------------0------------------------0h------3--2--0--
G|------------------------------------------------------2h---------------2---------------------------0h---------------
D|-----------------------------------------------------------------------------------0--0-----------------------------
A|--2-----------------------------------------------------------------------------------------------------------------
E|--------------------------2-----------------------3-----------------3------------------------------0h---------------

E|------------------0h-2p0-----0---------------0h2--0-----0---------0h2--0--0--2-----------3--2--------5--2--2--0-----
B|--------------3-----------3-----3--------3-----------3-----3------3h------------------0-----------------------0-----
G|------------------------------------------------------------------2h---------------2--------------------------0-----
D|-----------------------------------------------------------------------------------------------0--0-----------------
A|--2--------2--------------------------------------------------------------------------------------------------------
E|-----------------------------------2--------------------------3-----------------3-----------------------------0-----

E|---2p0-----------------------0--------------------------------------------0--------2--------------------2-----------
B|--------3--2--0-----3--------3------------3\2--0--------2--------3-----------3-----2--2--2--2---2p0-----2--2--2--2--
G|--------------------2--------2--------2--------0--0-----2--2-----2--2-----------2--2------------2p---2--2-----------
D|--------------------0-----0--0--0--------------------------------0--------------------------------------------------
A|-----------------------2-----------2--------------------------0--2-----2-----------0------------0p------0-----------
E|-----------------3-----------------------------3-----3--------------------------------------------------------------

E|--------------------------------------0--------------------------------------0--------0--2-----2--0--------0--0--0--
B|---2p0-----0--------2--------3-----------3------0h2--0------------------0h3-----3-----3-----------------3-----------
G|---2p---2--0--0-----2--2-----2--2-----------2---2h------2--------2--2-----------2--2-----------------3--------------
D|-----------------------------0------------------2h------------------------------0-----0-----0-----------------------
A|---0p---------------------0--2-----2------------0h------------------------------------------------------------------
E|-----------3-----3-----------------------------------------------------------------------------------2--------2-----

E|--0-----
B|-----3--
G|--------
D|--------
A|--------
E|--------



Song lyrics here


Paste any tab in acousterr's tab maker and we'll play it !!!
Now supports capo and sound effects for vibrato/pull-off/hammer/bends/mutes etc !!! Checkout help section
tabs and chords, guitar tabs, music transcription, music technology, deep learning, music information retrieval, transcribe into tabs & chords, chordify, music renditions, songsterr, reverbnation, tabulature, bollywood chords, ultimate guitar, yousician, guitar lessons, acoustic guitar, electric guitar, guitar tuner, 911 tabs