Guitar Tabs for Untold

(/) Slide Up  (\) Slide Down  (h) Hammer On  (p) Pull Off  (b) Bend (r) Release (v) Vibrato (x) Muted

Tabs for Song : Untold - Them Evils

All tunings in 1/2 step down.
After two measures of kick drum the guitar slides down from the 12th fret into the main riff.


E|------------------------------------------------------------------------------------------------------------------------------5b7--
B|-----------------------------------------------------------------------------------------------------------------------------------
G|------2b3---2b3---2p0------------------2b3---2b3---2p0------------------2b3---2b3---2p0------------------2b3---2b3---2p0-----------
D|-----------------------2-----2--------------------------2--------------------------------2-----2--------------------------2--------
A|-----------------------------------------------------------------------------------------------------------------------------------
E|--0-----------------------3--------0-----------------------3--------0-----------------------3--------0-----------------------------



E|--------------------------------------------------------------------------------------------------------------------------------------
B|--------------------------------------------------------------5-----------------------------------------------------------------------
G|------2b3---2b3---2p0------------------2b3---2b3---2p0------------------2b3---2b3---2p0------------------2b3---2b3---2p0--------------
D|-----------------------2-----2--------------------------2--------------------------------2-----2--------------------------2-----------
A|--------------------------------------------------------------------------------------------------------------------------------------
E|--0-----------------------3--------0-----------------------3--------0-----------------------3--------0-----------------------5--3-----



Bass part plays. Guitar tag before first verse.

E|-----------------------------------------------------------------------
B|-----------------------------------------------------------------------
G|-----------------------------------------------------------------------
D|-----------------------------------------------------------------------
A|--------------------------------------------------------12-10-12-10----
E|--0-----------------------------------------------------------------12-

verse
Guitar part for verse ! and 2
E|-----------------------------------------------------------------------------------------------------
B|-----------------------------------------------------------------------------------------------------
G|-----------------------------------------------------------------------------------------------------
D|-----------------------------------------------------------------------------------------------------
A|-----7--------7--7-----7--------------------5--7--------7--------7--7-----7--------------------5--7--
E|--0--------0--------0--------0--3--3---6/7-----------0--------0--------0--------0--3--3---6/7--------

E|-----------------------------------------------------------------------------------------------
B|-----------------------------------------------------------------------------------------------
G|-----------------------------------------------------------------------------------------------
D|-----------------------------------------------------------------------------------------------
A|-----7--------7--7-----7--------------------5--7--------7--------7--7-----7--------------------
E|--0--------0--------0--------0--3--3---6/7-----------0--------0--------0--------7-----6-----3--

E|-----------------------------------------------------------------------------------------------------
B|-----------------------------------------------------------------------------------------------------
G|-----------------------------------------------------------------------------------------------------
D|-----------------------------------------------------------------------------------------------------
A|-----7--------7--7-----7--------------------5--7--------7--------7--7-----7--------------------5--7--
E|--0--------0--------0--------0--3--3---6/7-----------0--------0--------0--------0--3--3---6/7--------

E|--------------------------------------------------------------------------------------------
B|--------------------------------------------------------------------------------------------
G|--------------------------------------------------------------------------------------------
D|--------------------------------------------------------------------------------------------
A|-----7--------7--7-----7--------------------5--7--------7--------7--7-----7-----7v-------7v-
E|--0--------0--------0--------0--3--3---6/7-----------0--------0--------0--------------------

Chorus
So the story goes.. the coldness in my soul can't be untold.
E|-----------------------------------------------------
B|-----------------------------------------------------
G|-----------------------------------------------------
D|-----------------------------------------------------
A|-----------------------------------------------------
E|--7v-------7--7--7--7v-------5--5--5--5--5------3/5--

E|-----------------------------------------------------------------------------------------------------------------------------------
B|--------------------------------------------------------------5--------------------------------------------------------------------
G|------2b3---2b3---2p0------------------2b3---2b3---2p0------------------2b3---2b3---2p0------------------2b3---2b3---2p0-----------
D|-----------------------2-----2--------------------------2--------------------------------2-----2--------------------------2--------
A|-----------------------------------------------------------------------------------------------------------------------------------
E|--0-----------------------3--------0-----------------------3--------0-----------------------3--------0-----------------------5--3--

Guitar tag before second verse.
E|--------------------------------------------------
B|--------------------------------------------------
G|-----------------------------------14-12-14-12----
D|-----------------------------------------------14-
A|--------------------------------------------------
E|--0-----------------------------------------------

For second verse, refer to first verse tab. 

Chorus 2. Refer to first chorus. The main riff section of chours 2 is repeated before the solo.

Pre Solo section. You will hear a bass line run before the main guitar kicks in with the punches.
E|--------------------------------------
B|--------------------------------------
G|--------------------------------------
D|--------------------------------------
A|--------------------------------------
E|--0--------------------7--7--7--7--5--

Solo
E|--------------------------------------------------------------------------------------
B|--------------------------------------------------------------------------------------
G|--14-14-14-14-14-14-14-14-14-14-14b14-14b15-14b15-14b15-14b15-14b16-14b16-14b16-14b16-
D|--------------------------------------------------------------------------------------
A|--------------------------------------------------------------------------------------
E|--------------------------------------------------------------------------------------

E|--------------------------------------------------------------------------------------------------------
B|--------------------------15b17----15b17v---------15b17----15p12----12----------------------------------
G|--14p12----12b13-------------------------------------------------14-12-14v------14-12-------12----------
D|--------14-------14v------------------------------------------------------------------14-12----14-12----
A|-----------------------------------------------------------------------------------------------------14-
E|--------------------------------------------------------------------------------------------------------

E|---------------------------------------------------------------------------------5b7--
B|--------------------------------------------------------------------------------------
G|---2b3---2b3------2p0------2b3---2b3---------2p0------2p0------2p0------2p0-----------
D|-----------------------2--------------------------2--------2--------2--------2--------
A|--------------------------------------------------------------------------------------
E|--------------------------------------------------------------------------------------

E|--------------------------------------------------------------------------------------------------------------------
B|--15b17v------15b17v------15b17-15-15b17-15-15b17-15----------------------------------------------------------------
G|-----------------------------------------------------12v------------------------------------------------------------
D|--------------------------------------------------------------------------------------------------------------------
A|--------------------------------------------------------------------13b14-13b14----13b14-13b14-------12----10-------
E|-----------------------------------------------------------------------------------------------------------------12-

So the story goes... the coldness in my soul cant be untold.
E|--------------------------------------------------------------------------
B|--------------------------------------------------------------------------
G|--------------------------------------------------------------------------
D|--------------------------------------------------------------------------
A|--------------------------------------------------------------------------
E|--7v----------------------7--7--7--7v-------5--5--5--5--5------------3/5--

Kick drum w/ tamborine 
E|-----------------------------------------------------------------------------------------------------------------------------------
B|-----------------------------------------------------------------------------------------------------------------------------------
G|------2b3---2b3---2p0------------------2b3---2b3---2p0------------------2b3---2b3---2p0------------------2b3---2b3---2p0-----------
D|-----------------------2-----2--------------------------2--------------------------------2-----2--------------------------2--------
A|-----------------------------------------------------------------------------------------------------------------------------------
E|--0-----------------------3--------0-----------------------3v-------0-----------------------3--------0-----------------------5--3--

w/ snare drum roll
E|---------------------------------------------------------------------------------------------------------------------------5b7--
B|--------------------------------------------------------------------------------------------------------------------------------
G|------2b3---2b3---2p0------------------2b3---2b3---2p0---------------2b3---2b3---2p0------------------2b3---2b3---2p0-----------
D|-----------------------2-----2--------------------------2-----------------------------2-----2--------------------------2--------
A|--------------------------------------------------------------------------------------------------------------------------------
E|--0-----------------------3--------0-----------------------3v----0-----------------------3--------0-----------------------------

w/ vocals
This is the same riff from the chorus. Repeat this section.
E|-----------------------------------------------------------------------------------------------------------------------------------
B|--------------------------------------------------------------5--------------------------------------------------------------------
G|------2b3---2b3---2p0------------------2b3---2b3---2p0------------------2b3---2b3---2p0------------------2b3---2b3---2p0-----------
D|-----------------------2-----2--------------------------2--------------------------------2-----2-----------------------------------
A|--------------------------------------------------------------------------------------------------------------------------2--------
E|--0-----------------------3--------0-----------------------3--------0-----------------------3--------0-----------------------5--3--

Outro 
E|-----------------------------------------------------------------------------------------------------------------------------------
B|-----------------------------------------------------------------------------------------------------------------------------------
G|------2b3---2b3---2p0------------------2b3---2b3---2p0------------------2b3---2b3---2p0------------------2b3---2b3---2p0-----------
D|-----------------------2--------------------------------2--------------------------------2--------------------------------2--------
A|-----------------------------------------------------------------------------------------------------------------------------------
E|--0------------------------3b4-----0------------------------3b4-----0------------------------3b4-----0-----------------------5--3--




tabs and chords, guitar tabs, music contests, music covers, songsterr, reverbnation, renditions, tabulature, bollywood chords, ultimate guitar, yousician, guitar lessons, torrins, fender, gibson, acoustic guitar, electric guitar, youtube covers, gootar, guitar tuner, A-Z tabs, 911 tabs