Guitar Tabs for Fake Love - Bts

(/) Slide Up  (\) Slide Down  (h) Hammer On  (p) Pull Off  (b) Bend (r) Release (v) Vibrato (x) Muted

Tabs for Song : Capo on 5th fret

Song lyrics here
E|--------------------------------------------------------------------------------------------------------------------
B|--------0--1--0--1--1--1--1--0--0--0--0--0--1--0--1--0-----------------------0--1--0--1--1--1--1--0--0--0--0--0--1--
G|--2--2-----2-----------------0--------------------------2--------------2--2-----2-----------------0-----------------
D|--------------------------------------------------------------------------------------------------------------------
A|-----------------------------------------------------0--------0--0--------------------------------------------------
E|-----------1-----------------3--------------------------------------------------1-----------------3-----------------

E|--------------------------------------------------------------------------------------------------------------------
B|--0--1--0-----------------------0---1h3---1h3--3--3--3--3--1---------------1h3---1h3--3--3--3--3--1-----------0--1--
G|-----------2--------------2--2------2h------------------0--------2--2--2---2h------------------0--------2--2-----2--
D|--------------------------------------------------------------------------------------------------------------------
A|--------0--------0--0------------------------------------------------------0h---------------------------------------
E|------------------------------------1h------------------3--------------------------------------3-----------------1--

E|--------------------------------------------------------0-----0-----0--0--3--3--0--x--0--3--3--0--x--0--3--3--0--x--
B|--0--1--0--1--0--1--0--0--0--0--0--0--1--0-----------------3-----3-----1-----------x--0-----------x--1-----------x--
G|--------------------0-----------------------2--------------------------2-----------x--0-----------x--2-----------x--
D|-----------------------------------------------------------------------------------x--------------x--------------x--
A|-----------------------------------------0--------0--0-----------------------------x--------------x--0-----------x--
E|--------------------3--------------------------------------------------1-----------x--3-----------x--------------x--

E|-----0-----0-----0-----0--3--3--0--x--0--3--3--0--x--0--3--3--0--x--------------------x--------------x--------------x--
B|--------3-----3-----3--1-----------x--0-----------x--1-----------x-----------------1--x-----1--0-----x-----------1--x--
G|-----------------------2-----------x--0-----------x--2-----------x-----2--2--2--2-----x-----------2--x--2--2--2-----x--
D|-----------------------------------x--------------x--------------x--------------------x--------------x--------------x--
A|--0--------3-----------------------x--------------x--------------x--3-----------------x--------------x-----------0--x--
E|-----------------------1-----------x--3-----------x--0-----------x-----------------1--x--------3-----x--------------x--

E|-----------x--------------------x--------------x--------------x--------------x--0--0--x-----------x--0--x-----------x--
B|--1--0-----x-----------1--------x--1--0-----1--x--------1-----x--1--0-----1--x--------x--1--3-----x-----x--1--0-----x--
G|--------2--x--2--2--2-----2--2--x--------2-----x--2--2-----2--x--------2-----x--------x-----------x-----x-----------x--
D|-----------x--------------------x--------------x--------------x--------------x--------x-----------x-----x-----------x--
A|-----------x--------------------x--------------x--------0-----x-----0--------x--------x-----------x--0--x-----------x--
E|-----0-----x-----------1--------x-----3--------x--------------x--------------x-----1--x--------3--x-----x--------0--x--

E|--0-----0-----x--0--------------x-----------x-----------x-----------------x--------------------x-----------------x-----
B|-----1-----1--x-----1--3-----3--x--3-----0--x--1--0-----x-----0--1--0--1--x--1--1--0--0--0--0--x--0--0--1--0-----x-----
G|--------------x-----------0-----x-----0-----x-----------x--2-----2--------x--------0-----------x--------------2--x-----
D|--------------x-----------------x-----------x-----------x-----------------x--------------------x-----------------x-----
A|--------------x-----------------x--------0--x--------0--x-----------------x--------------------x-----------0-----x-----
E|--1-----------x--------3--------x-----------x-----------x--------1--------x--------3-----------x-----------------x-----

E|-----------x-----------------------x--------------------x-----------------x-----------------x-----------------------
B|-----------x-----------0--1--0--1--x--1--1--0--0--0--0--x--1--0--1--0-----x-----------------x--------0---1h3---1h3--
G|-----------x-----2--2-----2--------x--------0-----------x--------------2--x-----------------x--2--2------2h---------
D|-----------x-----------------------x--------------------x-----------------x-----------------x-----------------------
A|--0--0--0--x-----------------------x--------------------x-----------0-----x-----0--0--0-----x-----------------------
E|-----------x--------------1--------x--------3-----------x-----------------x-----------------x------------1h---------

E|--------------x-----------------------x--------------x--------------------x--------------------x-----------------x--
B|--3--3--3--1--x------------1h3---1h3--x--3--3--3--1--x--------0--1--0--1--x--1--1--0--0--0--0--x--1--0--1--0-----x--
G|--------0-----x--2--2--2---2h---------x--------0-----x--2--2-----2--------x--------0-----------x--------------2--x--
D|--------------x-----------------------x--------------x--------------------x--------------------x-----------------x--
A|--------------x------------0h---------x--------------x--------------------x--------------------x-----------0-----x--
E|--------3-----x-----------------------x--------3-----x-----------1--------x--------3-----------x-----------------x--

E|--------------------------x--------------x-----------------------x-----------x-----------------x--------------x-----
B|--------------3--3--1--3--x--3--3--1--3--x--3--3--1---1h3---1h3--x--3--1--3--x--3--3--1--1-----x--3--1--1-----x--3--
G|--------------0--------2--x--2--------0--x--0---------2h---------x-----------x--0-----------2--x-----------2--x-----
D|--------------------------x--------------x-----------------------x-----------x-----------------x--------------x-----
A|--0--0--------------------x--------------x------------0h---------x-----------x-----------------x--------3-----x-----
E|-----------------------1--x-----------3--x-----------------------x--------0--x-----------1-----x--------------x-----

E|-----------------x-----------x--------------x-----------x--------------------x-----------x--------------x-----------
B|--1---1h3---1h3--x--3--1--3--x--3--3--1--3--x--3--1--3--x--3--1---1h3---1h3--x--3--1--3--x--3--1--1-----x--3--1--1--
G|------2h---------x-----------x--0--------2--x--------0--x---------2h---------x-----------x-----------2--x-----------
D|------0h---------x-----------x--------------x-----------x--------------------x-----------x--------------x-----------
A|-----------------x-----------x--------------x-----------x---------0h---------x-----------x--------------x--------3--
E|-----------------x--------0--x-----------1--x--------3--x--------------------x--------0--x--------1-----x-----------

E|-----x--------------------x--------------0-----0-----0--0--3--3--0--x--0--3--3--0--x--0--3--3--0--x--------0-----0--
B|-----x--3--1---1h3---1h3--x--3--1--3--------3-----3-----1-----------x--0-----------x--1-----------x-----------3-----
G|--2--x---------2h---------x--------0--------------------2-----------x--0-----------x--2-----------x-----------------
D|-----x--------------------x-----------------------------------------x--------------x--------------x-----------------
A|-----x---------0h---------x-----------------------------------------x--------------x--------------x--0--------------
E|-----x--------------------x--------0--------------------0-----------x--3-----------x--0-----------x--------------3--

E|-----0-----0--3--3--0--x--0--3--3--0--x--0--3--3--0--x-----------------0--0--x--0--0-----x--0--------------0--1--x--
B|--3-----3--1-----------x--0-----------x--1-----------x-----------------------x-----------x-----------------------x--
G|-----------2-----------x--0-----------x--2-----------x-----------------------x--------2--x-----2-----------------x--
D|-----------------------x--------------x--------------x-----------------------x-----------x-----------------------x--
A|-----------------------x--------------x--0-----------x--0--------3-----------x-----------x--------------0--------x--
E|-----------0-----------x--3-----------x--------------x-----3--0-----1--------x--3--------x-----------------------x--

E|--0--0-----x--0--------------0--0--x--0--0--------x--0--------------0--0--x--0-----x--0-----------0--x--------------
B|-----------x-----------------------x--------------x-----------------------x--------x--------------1--x--1--3--------
G|--------2--x-----2-----------------x--------2--2--x-----2-----------------x-----2--x-----2-----------x--------------
D|-----------x-----------------------x--------------x-----------------------x--------x-----------------x-----------0--
A|-----------x-----------------------x--------------x--------------0--------x--0-----x-----------------x--------------
E|--0--------x--------------1--------x--3-----------x-----------------------x--------x--------------1--x--------3-----

E|-----x--------------x-----------------x--------0-----0-----x--0--------------x--------------x-----------x-----------
B|-----x--------1-----x--1--0-----------x-----------1-----1--x-----1--3-----3--x--3-----0-----x--1--0-----x-----------
G|--0--x--0--------2--x--------------0--x--0-----------------x-----------0-----x-----0-----2--x--------2--x--2--------
D|-----x-----0--------x-----------0-----x-----0--------------x-----------------x--------------x-----------x-----------
A|-----x--------0-----x-----------------x--------------------x-----------------x--------0-----x-----0-----x-----------
E|-----x--------------x--------0--------x--------1-----------x--------3--------x--------------x-----------x--------1--

E|--0--x-----0-----------x-----------------x--------------x--------0--1--x--0--1--0-----0--x--------0-----x-----x-----
B|--1--x--3-----3--1--3--x--0--1--0-----1--x--------------x-----------1--x-----------3-----x--1--3-----3--x-----x-----
G|--2--x--------0--------x-----------2-----x-----------0--x--0--------2--x-----------------x--------------x-----x-----
D|-----x-----------------x-----------------x--------2-----x-----2--------x-----------------x--------------x-----x-----
A|-----x-----------------x--------0--------x--0-----------x--------------x-----------------x--------0-----x-----x-----
E|-----x--------3--------x-----------------x-----0--------x--------1-----x--------3--------x--------------x--0--x--1--

E|--0--x-----0-----------x-----------------x--------x--------------------x-----------x-----------x--------x--0-----0--
B|--1--x--3-----3--1--3--x--0--1--0-----1--x--------x--------0--1--0--1--x--0-----0--x-----------x--------x--1-----0--
G|--2--x--------0--------x-----------2-----x--------x--2--2--------------x-----2-----x--2--0--2--x--------x--2--2-----
D|-----x-----------------x-----------------x--------x--------------------x-----------x-----------x--------x-----------
A|-----x-----------------x--------0--------x--0-----x--------------------x-----------x--0--------x--0--0--x-----------
E|-----x--------3--------x-----------------x-----0--x-----------1--------x--3--------x-----------x--------x--1-----3--

E|-----0-----------0-----------0-----------------------x--------------x-----------------------x-----------x-----------
B|--1--1-----0--1--1-----0--1--1-----------3--3--1--3--x--3--3--1--3--x--3--3--1---1h3---1h3--x--3--1--3--x--3--1--1--
G|--0--2--2--0--0--2--2--0--0--2--2--------0--------2--x--2--------0--x--0---------2h---------x-----------x-----------
D|-----------------------------------------------------x--------------x-----------------------x-----------x-----------
A|-----0-----------------------0-----0-----------------x--------------x------------0h---------x-----------x-----------
E|-----------0-----1-----3--------------------------1--x-----------3--x-----------------------x--------0--x--------1--

E|-----x--------------x--------------------x--------------0-----0-----0--0--3--3--0--x--0--3--3--0--x--0--3--3--0--x--
B|-----x--3--1--1-----x--3--1---1h3---1h3--x--3--1--3--------3-----3-----1-----------x--0-----------x--1-----------x--
G|--2--x-----------2--x---------2h---------x--------0--------------------2-----------x--0-----------x--2-----------x--
D|-----x--------------x--------------------x-----------------------------------------x--------------x--------------x--
A|-----x--------3-----x---------0h---------x-----------------------------------------x--------------x--0-----------x--
E|-----x--------------x--------------------x--------0--------------------1-----------x--3-----------x--------------x--

E|-----0-----0-----0--0--3--3--0--x--0--3--3--0--x--0--3--3--0--x-----------------------------------------------------
B|--------3-----3-----1-----------x--0-----------x--1-----------x-----------------0--1--0--1--1--1--1--0--0--0--0--0--
G|--------------------2-----------x--0-----------x--2-----------x-----------2--2-----2-----------------0--------------
D|--------------------------------x--------------x--------------x-----------------------------------------------------
A|--0-----------------------------x--------------x--0-----------x--0--0-----------------------------------------------
E|-----------3--------1-----------x--3-----------x--------------x--------------------1-----------------3--------------

E|-----------------------------------------------------------------------------------------------------------------
B|--0--0--1--0-----------------------0--1--0--1--1--1--1--0--0--0--0--0--1--0--1--0-----------------------0---1h3--
G|--------------2--------------2--2-----2-----------------0--------------------------2--------------2--2------2h---
D|-----------------------------------------------------------------------------------------------------------------
A|-----------0--------0--0--------------------------------------------------------0--------0--0--------------------
E|--------------------------------------1-----------------3---------------------------------------------------1h---

E|--------------------------------------------------------------------------------------------------------------------
B|---1h3--3--3--3--3--1---------------1h3---1h3--3--3--3--3--1-----------0--1--0--1--0--1--0--1--0--0--0--0--0--0--0--
G|-----------------0--------2--2--2---2h------------------0--------2--2-----2--------------------0--------------------
D|--------------------------------------------------------------------------------------------------------------------
A|------------------------------------0h------------------------------------------------------------------------------
E|-----------------3--------------------------------------3-----------------1--------------------3--------------------

E|--------------------
B|--1--0--------------
G|--------2-----------
D|--------------------
A|-----0--------0--0--
E|--------------------







Paste any tab in acousterr's tab maker and we'll play it !!!
Now supports capo and sound effects for vibrato/pull-off/hammer/bends/mutes etc !!! Checkout help section
tabs and chords, guitar tabs, music transcription, music technology, deep learning, music information retrieval, transcribe into tabs & chords, chordify, music renditions, songsterr, reverbnation, tabulature, bollywood chords, ultimate guitar, yousician, guitar lessons, acoustic guitar, electric guitar, guitar tuner, 911 tabs