Guitar Tabs for Blurb

(/) Slide Up  (\) Slide Down  (h) Hammer On  (p) Pull Off  (b) Bend (r) Release (v) Vibrato (x) Muted

Tabs for Song : 
BPM : 200
capo 4th fret
Song lyrics here
E|--------------------------------------------------------------------------------------------------
B|--1--------0---------0h1--1--------0---------0h1--1--------0---------0h1--1--------0---------0h1--
G|-----0--------0--------------0--------0--------------2--------2--------------2--------2-----------
D|--------2--------2--------------2--------2--------------2--------2--------------2--------2--------
A|--3--------3---------3h---3--------3---------3h---0--------0---------0h---0--------0---------0h---
E|--------------------------------------------------------------------------------------------------

E|--------------------------------------------------------------------------------------------------0--
B|--1--------0---------0h1--1--------0---------0h1--1--------0---------0h1--1--------0---------0h1--1--
G|-----2--------2--------------2--------2--------------0--------0--------------0--------0-----------0--
D|--------3--------3--------------3--------3--------------0--------0--------------0--------0--------2--
A|--3--------3---------3h---3--------3---------3h---------------------------------------------------3--
E|--------------------------------------------------3--------3---------3h---3--------3---------3h------



Paste any tab in acousterr's tab maker and we'll play it !!!
Now supports capo and sound effects for vibrato/pull-off/hammer/bends/mutes etc !!! Checkout help section
tabs and chords, guitar tabs, music transcription, music technology, deep learning, music information retrieval, transcribe into tabs & chords, chordify, music renditions, songsterr, reverbnation, tabulature, bollywood chords, ultimate guitar, yousician, guitar lessons, acoustic guitar, electric guitar, guitar tuner, 911 tabs