Guitar Tabs for Bhaag Bhaag Dk Bose

(/) Slide Up  (\) Slide Down  (h) Hammer On  (p) Pull Off  (b) Bend (r) Release (v) Vibrato (x) Muted

Tabs for Song : 
Daddy mujhse bola    tu galti hai meri
E|--------------------------------------
B|-----------2--3--------2--2--2-----3--
G|--4--4--4--------2--2-----------4-----
D|--------------------------------------
A|--------------------------------------
E|--------------------------------------
Tujhpe zindagani   guilty hai meri
E|-----------------------------------
B|-----------2--3-----2--2--2--------
G|--4--4--4--------2-----------2--4--
D|-----------------------------------
A|-----------------------------------
E|-----------------------------------
saboon ki shakal mein    beta tu toh nikla kewal jhaag
E|--2--2--2-----3--------------------------------
B|-----------5-----5--3--3--3-----3--3--5--3--2--
G|-----------------------------4-----------------
D|-----------------------------------------------
A|-----------------------------------------------
E|-----------------------------------------------
jhaag       jhaag    bhaag
E|--2--------5-----------
B|-----------------------
G|--------------------4--
D|-----------------------
A|-----------------------
E|-----------------------
Bhaag bhaag DK bose, D K bose, D K bose

E|-----------------------------------------
B|-----------------2--3--------------------
G|--4--4--4--4--4--------2--2--2--2--2--2--
D|-----------------------------------------
A|-----------------------------------------
E|-----------------------------------------

E|--------------------------
B|--2--2--2--2-----2--3-----
G|--------------4--------4--
D|--------------------------
A|--------------------------
E|--------------------------
Bhaag bhaag DK bose, D K bose, D K bose

E|-----------------------------------------------------------
B|-----------------2--3-----------------2--2--2--2-----------
G|--4--4--4--4--4--------2--2--2--2--2--------------4--2--4--
D|-----------------------------------------------------------
A|-----------------------------------------------------------
E|-----------------------------------------------------------
Aandhi aayi            aandhi aayi             aandhi aayi

E|--2--2--2--2--2--2--2--2--2--2--2-----------------------------
B|-----------------------------------5--5--5--5--5--5--3--2--3--
G|--------------------------------------------------------------
D|--------------------------------------------------------------
A|--------------------------------------------------------------
E|--------------------------------------------------------------

Bhaag bhaag DK bose, D K bose, D K bose

E|--------------------------------------
B|-----------------2--3-----------------
G|--4--4--4--4--4--------2--2--2--2--2--
D|--------------------------------------
A|--------------------------------------
E|--------------------------------------


E|--------------------------
B|--2--2--2--2-----2--3-----
G|--------------4--------4--
D|--------------------------
A|--------------------------
E|--------------------------
Bhaag bhaag DK bose, D K bose, D K bose

E|--------------------------------------
B|-----------------2--3-----------------
G|--4--4--4--4--4--------2--2--2--2--2--
D|--------------------------------------
A|--------------------------------------
E|--------------------------------------

E|-----------------------
B|--2--2--2--2-----------
G|--------------4--2--4--
D|-----------------------
A|-----------------------
E|-----------------------
  Music
E|---------------2h-3p2--------------------------------------
B|--3--3--3--5-----------5--3--2--2--5--3--2--------2--------
G|--------------------------------------------4--4-----4--2--
D|-----------------------------------------------------------
A|-----------------------------------------------------------
E|-----------------------------------------------------------

E|-----------------2-----------5--3--2--------------
B|-----------3--5-----5--3--5-----------5--3--2-----
G|--4--4--4--------------------------------------4--
D|--------------------------------------------------
A|--------------------------------------------------
E|--------------------------------------------------

E|--------------------------------------------------------------
B|-----------3--2--2--3--2---------------2h-3p2-----------------
G|--4--4--4-----------------4--2--2--4-----------4--4--4--4--4--
D|--------------------------------------------------------------
A|--------------------------------------------------------------
E|--------------------------------------------------------------

E|-----------------2-----------5--3--2--------------
B|-----------3--5-----5--3--5-----------5--3--2-----
G|--4--4--4--------------------------------------4--
D|--------------------------------------------------
A|--------------------------------------------------
E|--------------------------------------------------
Hum toh hai kabootarr Do pahiye ka ek scooter zindagi
E|--------------------------------------------------------
B|--3--2--3--2--3--2-----2--3--2--3--5--3--2--------2-----
G|--------------------4--------------------------4-----2--
D|--------------------------------------------------------
A|--------------------------------------------------------
E|--------------------------------------------------------
Jo dhakelo toh Chale
E|--2--2--2-----------2--
B|-----------5--3--5-----
G|-----------------------
D|-----------------------
A|-----------------------
E|-----------------------
Arrey kismat ki hai kadki Roti kapda aur ladki teeno hi
E|-----------------------------------------------------
B|--3--2--3--2--3--2-----2--3--2--3--5--3--2-----2-----
G|--------------------4-----------------------4-----2--
D|-----------------------------------------------------
A|-----------------------------------------------------
E|-----------------------------------------------------
Paapad belo toh miley
E|--2--2--2-----------2--
B|-----------5--3--5-----
G|-----------------------
D|-----------------------
A|-----------------------
E|-----------------------
ye bheja garden hai
E|--------3-----2--------------------
B|--------------------5-----3-----2--
G|--4--4-----------------------------
D|-----------------------------------
A|-----------------------------------
E|-----------------------------------
aur tension maali hai
E|--------3-----2-----------------2--
B|--------------------5-----3--------
G|--4--4-----------------------------
D|-----------------------------------
A|-----------------------------------
E|-----------------------------------
    mann ka tanpura         frustation pe chede ek hi raag
E|--2--2--2-----3-----------------------------------------
B|-----------5-----5--------3--3--3-----3--3--3--5--3--2--
G|-----------------------------------4--------------------
D|--------------------------------------------------------
A|--------------------------------------------------------
E|--------------------------------------------------------
   raag      raaag    bhaag
E|--2--------5-----------
B|-----------------------
G|--------------------4--
D|-----------------------
A|-----------------------
E|-----------------------

Repeat bhaag bhaag DK Bose
E|--
B|--
G|--
D|--
A|--
E|--

Paste any tab in acousterr's tab maker and we'll play it !!!
Now supports capo and sound effects for vibrato/pull-off/hammer/bends/mutes etc !!! Checkout help section
tabs and chords, guitar tabs, music contests, music covers, songsterr, reverbnation, renditions, tabulature, bollywood chords, ultimate guitar, yousician, guitar lessons, torrins, fender, gibson, acoustic guitar, electric guitar, youtube covers, gootar, guitar tuner, A-Z tabs, 911 tabs