Guitar Tabs for Bayangan Gurauan

(/) Slide Up  (\) Slide Down  (h) Hammer On  (p) Pull Off  (b) Bend (r) Release (v) Vibrato (x) Muted

Tabs for Song : 

Song lyrics here
E|-----------------------------------------------------------------------
B|-----------------------------------------------------------------------
G|-----------------------------------------------------------------------
D|--7--5--7--------7--5-----3--5--3--2-----7-----7---7\9-----10-9--7--5--
A|--------------7-----------------------------7--------------------------
E|-----------------------------------------------------------------------

E|-----------------------------------------------------------------------------
B|--10-8--10-8--10----12-10-12-------12----13----15b15-13-12----------10-12----
G|--------------------------------9-----9--------------------14-12----------9--
D|-----------------------------------------------------------------------------
A|-----------------------------------------------------------------------------
E|-----------------------------------------------------------------------------

E|-----------------------------------------12-------------------------
B|--12-10-12-------12----13----13----------------15----13----12-13----
G|--------------9-----9-----------------14----14----14----14-------14-
D|--------------------------------------------------------------------
A|--------------------------------------------------------------------
E|--------------------------------------------------------------------

Fill
E|--------------------------------------------------------------------
B|--------------------------------------------------------------------
G|-----------9--7-----------------------------------------------------
D|-----7-----------10-9--7--2-----------------------------------------
A|--7-----7--------------------------------------7--5-----------------
E|--------------------------------------0--5--0--------8--7--5-----0--

E|--------------------------------------------------------------------------------------------------
B|-----6--8--5--8--5---8\10----10-8-----------------------------------------6--8--6--8--6-----------
G|--9--------------------------------10-9--10-------7--9--10----10-7--10-7-----------------9--7--9--
D|--------------------------------------------------------------------------------------------------
A|--------------------------------------------------------------------------------------------------
E|--------------------------------------------------------------------------------------------------

E|-----------------------
B|--------------5--6-----
G|-----4--5--7--------7--
D|--7--------------------
A|-----------------------
E|-----------------------

Solo
E|--------------------------------------------------------------------------
B|--------------------------------15----13-15-13----12-13----------12-12p13-
G|-----------7--9--9--------12p14-------------------------12----14----------
D|--7--9--10-------------14-------------------------------------------------
A|--------------------------------------------------------------------------
E|--------------------------------------------------------------------------

E|-----------------------------------------------------------------------
B|--12p13-12----12----------------------10-------------8-----------------
G|-----------14----14-12-14--------7\9--------9--7--9-----9------7p9--7--
D|-----------------------------------------------------------------------
A|-----------------------------------------------------------------------
E|-----------------------------------------------------------------------

E|--------------------------------------------------------------------------------
B|---5p6--5--6--5--6--5-----6--10-------------------------------------------------
G|-----------------------------------------------9--10-------9--------9--10-10\12-
D|--------------------------------------7--9--10----------------12----------------
A|--------------------------------------------------------------------------------
E|--------------------------------------------------------------------------------

E|--------------------------------------------------------------------
B|--10-12-12\13----------12-13-------------12-13-15b15----15b15-13----
G|------------------9\14-------14-----9\14-------------------------14-
D|--------------------------------------------------------------------
A|--------------------------------------------------------------------
E|--------------------------------------------------------------------

E|-----17-15-------------------------------17----
B|-----------18-17-15-------------15-17-18----15-
G|--14-------------------14-16-17----------------
D|-----------------------------------------------
A|-----------------------------------------------
E|-----------------------------------------------

Outro :
E|--------------------------------------------------------------------------------------------------
B|--5--6------5p6--5-----------------------------------3--5------3p5--3-----------------------------
G|--------------------7--5--7------5p7--4--5--7--------------------------5--4--5------4p5--2--0--2--
D|--------------------------------------------------------------------------------------------------
A|--------------------------------------------------------------------------------------------------
E|--------------------------------------------------------------------------------------------------


Paste any tab in acousterr's tab maker and we'll play it !!!
Now supports capo and sound effects for vibrato/pull-off/hammer/bends/mutes etc !!! Checkout help section
tabs and chords, guitar tabs, music transcription, music technology, deep learning, music information retrieval, transcribe into tabs & chords, chordify, music renditions, songsterr, reverbnation, tabulature, bollywood chords, ultimate guitar, yousician, guitar lessons, acoustic guitar, electric guitar, guitar tuner, 911 tabs