Awkward - Bass Tabs

(/) Slide Up  (\) Slide Down  (h) Hammer On  (p) Pull Off  (b) Bend (r) Release (v) Vibrato (x) Muted

AWKWARD - GHOST CARĀ©  


I'm a stranger, am I pleased to meet ya? x 4
Looking at the door, looking at the floor,
This is awkward, you feel awkward
Hiding myself in the same weird place
Am I strange, am I awkward?
G|--------------------------
D|--------------------------
A|-----------2-----------1--
E|--0--3--2-----0--3--2-----

We don't sit, we don't fit x 2 
G|--------------------------------------
D|--------------------------------------
A|-----------------2-----------------2--
E|--0--0--3--2--2-----0--0--3--2--2-----

I'm a stranger, am I pleased to meet ya? x 4

G|--------------------------
D|--------------------------
A|-----------2-----------1--
E|--0--3--2-----0--3--2-----

Bridge: Stranger x 4

G|--------------------------
D|--------------------------
A|--------------------------
E|--0--0--0--2--3--6--6--5--

G|-----------------------------------------
D|-----------------------------------------
A|-----------------------------------------
E|--6--6--5--6--6--5--6--6--5--6--6--5--0--

Guitar solo (first part)
G|--------------------------
D|--------------------------
A|-----------2-----------1--
E|--0--3--2-----0--3--2-----

Guitar solo (second part: more thrashy)
Awkward, weird, strange, uncomfortable, unpleasant, bizarre 
Awkward situations without consideration, this is awkward, you feel awkward?!

Maeve's German bit
G|-----------------------------
D|-----------------------------
A|--------1--0--------1--0-----
E|--0--3--------0--3--------0--

We don't fit, we don't sit x 2

Outro / chorus 
G|--------------------------
D|--------------------------
A|-----------2-----------1--
E|--0--3--2-----0--3--2-----







tabs and chords, guitar tabs, music transcription, music technology, deep learning, music information retrieval, transcribe into tabs & chords, chordify, music renditions, songsterr, reverbnation, tabulature, bollywood chords, ultimate guitar, yousician, guitar lessons, acoustic guitar, electric guitar, guitar tuner, 911 tabs