Guitar Tabs for Awaken The Madmen

Awaken The Madmen - Vinnie Moore
C# Phrygian Dominant x2
E|--------------------------------------------------------------------------------------------------
B|--------------------------------------------------------------------------------------------------
G|--------------------------------------------------------------------------------------------------
D|-----------------------------11-10----12----11----------------------------------------------------
A|-----------9--8-----12-11-------------------------12-11----10-9-----------------------------------
E|--10-9--------------------------------------------------------------10-9-----7--5-----4-----------

E|--------------------------------------------------------------------------------------------------
B|--------------------------------------------------------------------------9-----------------------
G|--------------------------------------------------11-10----11-10-------------11-10----------------
D|-----------------------------11-10----12----11----------12-------12-11-9-----------12-11-9--------
A|-----------9--8-----12-11-------------------------------------------------------------------12-11-
E|--10-9--------------------------------------------------------------------------------------------
F# Locrian and harmonic minor
E|--------------------------------------------------------------------------------------------------------------
B|--------------------------------------------------------------------------Triplets----------------------------
G|--------------------------------------------------------------------------------------------------------------
D|--------------------------------------------------------------------------4--2--0--4--2--0--------------------
A|--3-----------------------3-----------------------3-----------------------------------------5--4--2--5--4--2--
E|-----2-----2-----2--2--------2-----2-----2--2--------2-----2-----2--2-----------------------------------------

E|-----------------------------------------------------------------------------------------------------------------
B|-----------------------------------------------------------------------------------------------------------------
G|--------------------------------------------------Triplets-------------------------------------------------------
D|-----------------------------------------------------------------------------------------------------------------
A|--3-----------------------3---------------------------------4h5p4--4-------------------------4h5h7p5--4----------
E|-----2-----2-----2--2--------2-----2-----2--2-----4--5--7--------------7--5--4-----4--5--7---------------7--5--4-

E|--------------------------------------------------------------------------------------------------------------------------
B|--------------------------------------------------Triplets----------------------------------------------------------------
G|--------------------------------------------------------------------------------------------------------------------------
D|--------------------------------------------------6--4--3--6--4--3--------------------------------------------------------
A|--3-----------------------3-----------------------------------------7--5--4--7--5--4--------------------------------------
E|-----2-----2-----2--2--------2-----2-----2--2-----------------------------------------7--5--4--7--5--4--5--4--2--5--4--2--

E|--------------------------------------------------------------------------------------------------------------------
B|--------------------------------------------------------------------------------------------------------------------
G|--------------------------------------------------------------------------------------------------------------------
D|--------------------------------------------------6--4--3--6--4--3--4--3--------------6--4--3--6--4--3--4--3--------
A|--3-----------------------3-----------------------------------------------5--4--------------------------------5--4--
E|-----2-----2-----2--2--------2-----2-----2--2-----------------------------------------------------------------------
Verse, F# harmonic minor
E|--------------------------------------------------------------------------------------------------------------------------
B|--------------------------------------------------------------6--10-6-----------6--9--6-----------6--7--6----------/14----
G|--7--6--7--6-----------------------7--6--7--6--------------------------7--6--7-----------7--6--7-----------7--6---7-------
D|--------------9--7--6--9--7--------------------9--7--6--------------------------------------------------------------------
A|-----------------------------9--8-----------------------------------------------------------------------------------------
E|--------------------------------------------------------------------------------------------------------------------------

E|--------------------------------------13-10-13-10-------16-13-16-13-------19b21-------------------
B|--10-9--10-9--------12-9--12-9--------------------12----------------15-14-------------------------
G|--------------11-10-------------11-10----------------13-------------------------------------------
D|--------------------------------------------------------------------------------------------------
A|--------------------------------------------------------------------------------------------------
E|--------------------------------------------------------------------------------------------------
F# Natural Minor
E|--------14-13-14----------------14-13-14----------------16-15-16----------------16-15-16----------
B|--------------------------------------------------------------------------------------------------
G|-----14----------14----------14----------14----------16----------16----------16----------16-------
D|--16----------------16-15-16----------------16-15-18----------------18-17-18----------------18-17-
A|--------------------------------------------------------------------------------------------------
E|--------------------------------------------------------------------------------------------------

E|--------17-16-17----------------17-16-17----------------19-18-19----------13h16p13p10h13p10----10-------------
B|--------------------------------------------------------------------------------------------------------------
G|-----18----------18----------18----------18----------19----------19-------------------------16----16p13-------
D|--19----------------19-18-19----------------19-18-21----------------21-20-------------------------------------
A|--------------------------------------------------------------------------------------------------------------
E|--------------------------------------------------------------------------------------------------------------

E|--------------------------------------------------------------
B|--------------------------------------------------------------
G|--7--6--7--6-----------------------7--6--7--6-----------------
D|--------------9--7--6--9--7--------------------9--7--6--------
A|-----------------------------9--8-----------------------------
E|--------------------------------------------------------------

E|--------------------------------------------------------------
B|--6--10-6-----------6--9--6-----------6--7--6----------/14----
G|-----------7--6--7-----------7--6--7-----------7--6---7-------
D|--------------------------------------------------------------
A|--------------------------------------------------------------
E|--------------------------------------------------------------

E|--------------------------------------13-10-13-10-------16-13-16-13-------21b22-------21----------
B|--10-9--10-9--------12-9--12-9--------------------12----------------15-14-------------------------
G|--------------11-10-------------11-10----------------13-------------------------------------------
D|--------------------------------------------------------------------------------------------------
A|--------------------------------------------------------------------------------------------------
E|--------------------------------------------------------------------------------------------------

E|--------14-13-14----------------14-13-14----------------16-15-16----------------16-15-16----------
B|--------------------------------------------------------------------------------------------------
G|-----14----------14----------14----------14----------16----------16----------16----------16-------
D|--16----------------16-15-16----------------16-15-18----------------18-17-18----------------18-17-
A|--------------------------------------------------------------------------------------------------
E|--------------------------------------------------------------------------------------------------

E|--------17-16-17----------------17-16-17----------------19-18-19----------------------
B|--------------------------------------------------------------------------------------
G|-----18----------18----------18----------18----------19----------19-------------------
D|--19----------------19-18-19----------------19-18-21----------------21-20-------------
A|--------------------------------------------------------------------------------------
E|--------------------------------------------------------------------------------------
Chorus
E|--------------------------------------------------------------------------------------------
B|--------------------------14-15----------14-15-14----------------14-------------------------
G|-----------------13-14-16----------------------------------------------16----16p14----------
D|-----------14-16-------------------------------------14-------14-------------------------14-
A|--14-16-17----------------------------------------------------------------------------------
E|--------------------------------------------------------------------------------------------

E|--------------------------------------------------------------------------------------
B|--------------------------------------------------------14----14-15-17----------19-17-
G|--16-------14h16p14\13----------------13----14-13-14-16----16-------------------------
D|--------------------------14----16----------------------------------------------------
A|--------------------------------------------------------------------------------------
E|--------------------------------------------------------------------------------------

E|-----------------------------------------------------------------------------------
B|--15-------14-15-14----------------------------------------14----15----17----19----
G|-----------------------------------14----13----14----16----------------------------
D|-----------------------14----------------------------------------------------------
A|-----------------------------------------------------------------------------------
E|-----------------------------------------------------------------------------------
Sweep pick
E|--------------14-17-22-------17-14----------------14-17-21/22\21----------
B|-----------15----------------------15----------15-------------------------
G|--------14----------------------------------14----------------------------
D|-----16----------------------------------16-------------------------------
A|--17----------------------------------17----------------------------------
E|--------------------------------------------------------------------------

E|--16-17-16-14-------------------------------------------------------------
B|--------------15----------------------------------------------------------
G|-----------------14-13-14-13-11-------------------------------------------
D|--------------------------------12----------------------------------------
A|-----------------------------------12-12-11-12-11-12-11-9-----------------
E|--------------------------------------------------------------------------

E|--------------10-14-19----17----19p17-16----------
B|-----------12----------------------------17-------
G|--------11----------------------------------16----
D|-----12-------------------------------------------
A|--14----------------------------------------------
E|--------------------------------------------------

E|--17-21-17----------------------------------17-21-17----------------------
B|-----------17----------------------------17----------17-------------------
G|--------------18----------------------18----------------18----------------
D|-----------------19----------------19----------------------19-------------
A|--------------------19----------19----------------------------19----------
E|-----------------------21-17-21----------------------------------21-17----

E|--------------14-17-22-------17-14----------------14-17-21/22\21----------16-19-16----------12-16-12-------------------------
B|-----------15----------------------15----------15----------------------------------17----------------12-------19-------------
G|--------14----------------------------------14----------------------------------------16----------------13-------------------
D|-----16----------------------------------16----------------------------------------------18----------------14----------------
A|--17----------------------------------17-------------------------------------------------------------------------------------
E|-----------------------------------------------------------------------------------------------------------------------------

E|--19----17----19p17p16-------------------------------------------------------------------------19-21v---------
B|--------------------------17----------------------------------------------------------19-21-22----------------
G|--------------------------------16----14----16p14p13-------------------------18-19-21-------------------------
D|--------------------------------------------------------14----------18-19-21----------------------------------
A|--------------------------------------------------------------19-21-------------------------------------------
E|--------------------------------------------------------------------------------------------------------------

(Verse, F# harmonic minor, with these changes)

E|--------------------13-10----10-------------------------16-13----13-------21b22-------21----21----------------
B|--12-9-----9--------------------------15-12----12-------------------------------------------------------------
G|--------------------------13----13-10-------------------------16----16-14-------------------------------------
D|--------12----12-9--------------------------15----15-12-------------------------------------------------------
A|----Triplets--------------------------------------------------------------------------------------------------
E|--------------------------------------------------------------------------------------------------------------

(Chorus, with these changes)

E|--------19-18-19----------------------------------------------
B|--------------------------18-15----15-------15-12----12-------
G|-----19----------19-------------------------------------------
D|--21----------------21-20-------18----18-15-------15----15-12-
A|--------------------------------Triplets----------------------
E|--------------------------------------------------------------

E|--------------------------------------------------------------
B|--------------------------------------------------------------
G|--7--6--7--6-----------------------7--6--7--6-----------------
D|--------------9--7--6--9--7--------------------9--7--6--------
A|-----------------------------9--8-----------------------------
E|--------------------------------------------------------------

E|--17-16-17-16-14----------------19-18-19----------
B|-----------------14-------------------------------
G|--------------------14-13----14-------------------
D|--------------------------16----------------------
A|--------------------------------------------------
E|--------------------------------------------------

E|--------------------16-13----13-------------------------19-16----16-------
B|--15-12----12-------------------------18-15----15-------------------------
G|--------------------------16----16-13-------------------------19----19-16-
D|--------15----15-12-------------------------18----18-15-------------------
A|--------------------------------------------------------------------------
E|--------------------------------------------------------------------------

E|-----------------------------------16-19-22-19-16-------------------------
B|-----------12-15----12-15-18-15-18----------------------------------------
G|--------------------------------------------------19-16-13----------------
D|--12-15-18-------18----------------------------------------15-------------
A|--------------------------------------------------------------------------
E|--------------------------------------------------------------------------

(Verse)

E|--------------------------------------------------------------------------------------------------
B|--------------------------14-15----------14-15-14----------------14-------------------------------
G|-----------------13-14-16----------------------------------------------16----16p14----------------
D|-----------14-16-------------------------------------14-------14-------------------------14-------
A|--14-16-17----------------------------------------------------------------------------------------
E|--------------------------------------------------------------------------------------------------

E|--------------------------------------------------------------------------------------------------
B|--------------------------------------------------------14----14-15-17----------17b19----17-------
G|--16-------14h16p14\13----------------13----14-13-14-16----16-------------------------------------
D|--------------------------14----16----------------------------------------------------------------
A|--------------------------------------------------------------------------------------------------
E|--------------------------------------------------------------------------------------------------

E|-----------------------------------------------------------17----------
B|--15-------------------17----------14----------------17----------17----
G|-----------------16----------16----------------------------------------
D|-----------------------------------------------------------------------
A|-----------------------------------------------------------------------
E|-----------------------------------------------------------------------

E|--21b22-------21-19----24-22-21----21-19-17-------17----
B|--------------------17----------17-------------------17-
G|--------------------------------------------------------
D|--------------------------------------------------------
A|--------------------------------------------------------
E|--------------------------------------------------------

E|--------22----21-22-21-19----16----------21-19-21-19-17-------------------
B|--19-15-------------------15----15-17-14----------------------------------
G|--------------------------------------------------------------------------
D|--------------------------------------------------------------------------
A|--------------------------------------------------------------------------
E|--------------------------------------------------------------------------

E|--22-21-22-21-19-17-16----------------------------------
B|-----------------------17-------------------14-15-17-19-
G|--------------------------16----14-13-14-16-------------
D|--------------------------------------------------------
A|--------------------------------------------------------
E|--------------------------------------------------------

(Sweep pick section, with these changes)

E|--------------------------------------------------------------------------------------
B|--14----------------------------------------------------------------------------------
G|--------16----14----13----13----------------13----------------------------13----16----
D|--------------------------------15----16----------16----------------16----------------
A|--------------------------------------------------------------------------------------
E|--------------------------------------------------------------------------------------
Breakdown, F# natural and harmonic minor
E|--------------------------------------------------------------------------------------------------------------
B|-----------------------------------17----15----17-15-14----15----14----12----14-------------15----------------
G|--18----------------------------------------------------------------------------------------------16----------
D|-----------16----16----------16----------------------------------------------------------------------------16-
A|--------------------------------------------------------------------------------------------------------------
E|--------------------------------------------------------------------------------------------------------------

E|-----------------------------------------------------------------------14-16-17-19-21-22-21-------------22----
B|--------------------------------------------------------------14-15-17----------------------------------------
G|--18-------19-18-16-14-13-13----------14-------------13-14-16-------------------------------------------------
D|-----------------------------------------16-------16----------------------------------------------------------
A|--------------------------------------------------------------------------------------------------------------
E|--------------------------------------------------------------------------------------------------------------

E|--21-------21----------12-15-18-21-18-15-12-------------------------12-15----12-15-18-------21-------19-------
B|--------------------------------------------------------------------------------------------------------------
G|--------------12-15-18----------------------18-15-12-12-15-18-15-18-------18----------------------------------
D|--------------------------------------------------------------------------------------------------------------
A|--------------------------------------------------------------------------------------------------------------
E|--------------------------------------------------------------------------------------------------------------

E|--17----------------------------------------------------------
B|--------------15-19-18-19-14-19-18-19----19-18-19----19-18-19-
G|--------------------------------------16----------14----------
D|--------------------------------------------------------------
A|--------------------------------------------------------------
E|--------------------------------------------------------------

E|--------------14-17-22-17-14----------------14-17-21/22\21----------------------------
B|-----------15----------------15----------15-------------------------------------------
G|--------14----------------------------14----------------------------------16-18-18----
D|-----16----------------------------16-------------------------16-18-19-19-------------
A|--17----------------------------17----------------------------------------------------
E|--------------------------------------------------------------------------------------

E|--------------------------16-17-19-21-22----------21----19----------15----19----
B|--------------------17-19-------------------------------------15----------------
G|-----------16-18-19-------------------------------------------------------------
D|--16-18-19----------------------------------------------------------------------
A|--------------------------------------------------------------------------------
E|--------------------------------------------------------------------------------

E|--21-19-17----------------------------------------------------
B|-----------21-19-18-21-19-18-------------------------------21-
G|-----------------------------21-19-18----------------19-------
D|--------------------------------------21-18----21-------------
A|--------------------------------------------------------------
E|--------------------------------------------------------------

E|--14-17-16-17-12-17-16-17----17-16-17----17-16-17-
B|--------------------------15----------14----------
G|--------------------------------------------------
D|--------------------------------------------------
A|--------------------------------------------------
E|--------------------------------------------------
B dominant phrase
E|--------------14----------------------------------
B|--12-17-16-17----17-16----------------------------
G|-----------------------16-14-13-------------------
D|--------------------------------16-14-13----------
A|--------------------------------------------------
E|--------------------------------------------------
F# locrian phrase
E|-----------------------------14-15-17-19----17-15-14----------------------
B|--------------------13-15-17-------------------------17-15-13-------------
G|-----------12-14-16-------------------------------------------16-14-12-11-
D|--12-14-16----------------------------------------------------------------
A|--------------------------------------------------------------------------
E|--------------------------------------------------------------------------
B diminshed
E|--------------10-13-16----13-10----19----16-13----13----------
B|-----------12-------------------12----------------------------
G|--------10-------------------------------------19----19-16-13-
D|-----12-------------------------------------------------------
A|--14----------------------------------------------------------
E|--------------------------------------------------------------

E|--16-13-10----13-10-------10----------------------------------------------------------------------------------
B|--------------------------------------------------15----14h15p14----------------------------------------------
G|-----------16-------16-13----16-13-10-14----13----------------------14----13----------------13----------------
D|--------------------------------------------------------------------------------15----16----------16v---------
A|--------------------------------------------------------------------------------------------------------------
E|--------------------------------------------------------------------------------------------------------------
Breakdown
E|--
B|--
G|--
D|--
A|--
E|--



tabs and chords, guitar tabs, music transcription, music technology, deep learning, music information retrieval, transcribe into tabs & chords, chordify, music renditions, songsterr, reverbnation, tabulature, bollywood chords, ultimate guitar, yousician, guitar lessons, acoustic guitar, electric guitar, guitar tuner, 911 tabs