Guitar Tabs for [jojo's Bizarre Adventure] Awaken - Pillar Men Theme

(/) Slide Up  (\) Slide Down  (h) Hammer On  (p) Pull Off  (b) Bend (r) Release (v) Vibrato (x) Muted () Harmonics
b(1/2) Bend Half Step


E|-----------------------------------------------------------------------------------------------------------------------------------------------------------------------------------
B|--6--6--6--4--6--7--9--10-9--7--6--6---------4/6--6-----4--6--7--9--10-9--7--6--4--------6--6--6--4--6--7--9--10-9--7--6--6------4/6--6-----7--7-----9--9-----10-10----13-10-9--7--
G|-----------------------------------------------------------------------------------------------------------------------------------------------------------------------------------
D|-----------------------------------------------------------------------------------------------------------------------------------------------------------------------------------
A|-----------------------------------------------------------------------------------------------------------------------------------------------------------------------------------
E|-----------------------------------------------------------------------------------------------------------------------------------------------------------------------------------

E|--------------------------------------------------------------------------------------------------------------------------------------------------------------------------------------
B|--6--6--6--4--6--7--9--10-9--7--6--6---------4/6--6-----4--6--7--9--10-9--7--6--4--------6--6--6--4--6--7--9--10-9--7--6--6------4/6--6-----7--7-----9--9-----10-10----13-10-9--7--6--
G|--------------------------------------------------------------------------------------------------------------------------------------------------------------------------------------
D|--------------------------------------------------------------------------------------------------------------------------------------------------------------------------------------
A|--------------------------------------------------------------------------------------------------------------------------------------------------------------------------------------
E|--------------------------------------------------------------------------------------------------------------------------------------------------------------------------------------

E|-----------------------------------------------------------------------------------------------------------------------------------------------------------------------------------
B|--6--6--6--4--6--7--9--10-9--7--6--6---------4/6--6-----4--6--7--9--10-9--7--6--4--------6--6--6--4--6--7--9--10-9--7--6--6------4/6--6-----7--7-----9--9-----10-10----13-10-9--7--
G|-----------------------------------------------------------------------------------------------------------------------------------------------------------------------------------
D|-----------------------------------------------------------------------------------------------------------------------------------------------------------------------------------
A|-----------------------------------------------------------------------------------------------------------------------------------------------------------------------------------
E|-----------------------------------------------------------------------------------------------------------------------------------------------------------------------------------

E|-----------------------------------------------------------------------------------------------------------------------------------------------------------------------------------
B|--6--6--6--4--6--7--9--10-9--7--6--6---------4/6--6-----4--6--7--9--10-9--7--6--4--------6--6--6--4--6--7--9--10-9--7--6--6------4/6--6-----7--7-----9--9-----10-10----13-10-9--7--
G|-----------------------------------------------------------------------------------------------------------------------------------------------------------------------------------
D|-----------------------------------------------------------------------------------------------------------------------------------------------------------------------------------
A|-----------------------------------------------------------------------------------------------------------------------------------------------------------------------------------
E|-----------------------------------------------------------------------------------------------------------------------------------------------------------------------------------

E|--------------------------------------------------------------------------------------------------------------------------------------------------------
B|--------------------------------------------------------------------------------------------------------------------------------------------------------
G|--------------------------------------------------------------------------------------------------------------------------------------------------------
D|--3--3--3--3--3--3--3--3--3--3--3--3--3--3--1--1--3--3--3--3--3--3--3--3--3--3--3--3--3--3--1--1--3--3--3--3--3--3--3--3--3--3--3--3--3--3--1--1---3/10v
A|--------------------------------------------------------------------------------------------------------------------------------------------------------
E|--------------------------------------------------------------------------------------------------------------------------------------------------------

E|--------------------------------------------------------------------------------------------
B|------------9b(1/2)--------------------9b(1/2)----------------------------------------------
G|--10----------------10-8--10-------------------10-8--10/13-12-11-10--8/10----10b(1/2)-8--10-
D|--------------------------------------------------------------------------------------------
A|--------------------------------------------------------------------------------------------
E|--------------------------------------------------------------------------------------------

E|------------------------------------------------------------------------(5)--
B|---9b(1/2)--------------------9b(1/2)-----------------------------------(5)--
G|-----------10-8--10-------------------10-8--10/13-12-11-10--8/10--------(5)--
D|------------------------------------------------------------------------(5)--
A|------------------------------------------------------------------------(5)--
E|-----------------------------------------------------------------------------

E|-----------------------------------------------------------------------------------------------------------------------------------------------------------------------------------
B|--6--6--6--4--6--7--9--10-9--7--6--6---------4/6--6-----4--6--7--9--10-9--7--6--4--------6--6--6--4--6--7--9--10-9--7--6--6------4/6--6-----7--7-----9--9-----10-10----13-10-9--7--
G|-----------------------------------------------------------------------------------------------------------------------------------------------------------------------------------
D|-----------------------------------------------------------------------------------------------------------------------------------------------------------------------------------
A|-----------------------------------------------------------------------------------------------------------------------------------------------------------------------------------
E|-----------------------------------------------------------------------------------------------------------------------------------------------------------------------------------

E|--------------------------------------------------------------------------------------------------------------------------------------------------------------------------------------
B|--6--6--6--4--6--7--9--10-9--7--6--6---------4/6--6-----4--6--7--9--10-9--7--6--4--------6--6--6--4--6--7--9--10-9--7--6--6------4/6--6-----7--7-----9--9-----10-10----13-10-9--7--6--
G|--------------------------------------------------------------------------------------------------------------------------------------------------------------------------------------
D|--------------------------------------------------------------------------------------------------------------------------------------------------------------------------------------
A|--------------------------------------------------------------------------------------------------------------------------------------------------------------------------------------
E|--------------------------------------------------------------------------------------------------------------------------------------------------------------------------------------

E|-----------------------------------------------------------------------------------------------------------------------------------------------------------------------------------
B|--6--6--6--4--6--7--9--10-9--7--6--6---------4/6--6-----4--6--7--9--10-9--7--6--4--------6--6--6--4--6--7--9--10-9--7--6--6------4/6--6-----7--7-----9--9-----10-10----13-10-9--7--
G|-----------------------------------------------------------------------------------------------------------------------------------------------------------------------------------
D|-----------------------------------------------------------------------------------------------------------------------------------------------------------------------------------
A|-----------------------------------------------------------------------------------------------------------------------------------------------------------------------------------
E|-----------------------------------------------------------------------------------------------------------------------------------------------------------------------------------

E|-----------------------------------------------------------------------------------------------------------------------------------------------------------------------------------
B|--6--6--6--4--6--7--9--10-9--7--6--6---------4/6--6-----4--6--7--9--10-9--7--6--4--------6--6--6--4--6--7--9--10-9--7--6--6------4/6--6-----7--7-----9--9-----10-10----13-10-9--7--
G|-----------------------------------------------------------------------------------------------------------------------------------------------------------------------------------
D|-----------------------------------------------------------------------------------------------------------------------------------------------------------------------------------
A|-----------------------------------------------------------------------------------------------------------------------------------------------------------------------------------
E|-----------------------------------------------------------------------------------------------------------------------------------------------------------------------------------

E|-----------------------------------------------------------------------------------------------------------------------------------------
B|-----------------------------------------------------------------------------------------------------------------------------------------
G|-----------------------------------------------------------------------------------------------------------------------------------------
D|-----------------------------------------------------------------------------------------------------------------------------------------
A|- 10-10-x--0--10-10-10----10-6--5--4--4--x--0--4--4--4--x--x--x--x--10-10-x--0--10-10-10---10-6--5--4--4--4--4--4--4--8--8--8--10-10-10--   x2
E|--8--8--x--0--8--8--8-----8--4--3--2--2--x--0--2--2--2--x--x--x--x--8--8--x--0--8--8--8----8--4--3--2--2--2--2--2--2--6--6--6--8--8--8---





Song lyrics here 


Use manual mode to free up cursor. Paste any tab in acousterr tab maker and we'll play it !!!
tabs and chords, guitar tabs, music transcription, music technology, deep learning, music information retrieval, transcribe into tabs & chords, chordify, music renditions, songsterr, reverbnation, tabulature, bollywood chords, ultimate guitar, yousician, guitar lessons, acoustic guitar, electric guitar, guitar tuner, 911 tabs