Guitar Tabs for Aquatic Ambience

(/) Slide Up  (\) Slide Down  (h) Hammer On  (p) Pull Off  (b) Bend (r) Release (v) Vibrato (x) Muted

Aquatic Ambience Rough Draft - Jay Eversoll

Donkey Kong Country | David Wise
E|--------------------------1-----------------------------------
B|--3-----------3--1--3--4-----4--3-----------------------------
G|-----5--0--------------------------3-----3--5--------3--5-----
D|-----------------------------------------------1-----------1--
A|--------------------------------------------------------------
E|--------------------------------------------------------------

E|--------------------------1--3--6--8--------------------6--8-----
B|--3-----------3--1--3--4--------------4-----------------------4--
G|-----5--0-----------------------------------3--5-----------------
D|--------------------------------------------------1--------------
A|-----------------------------------------------------------------
E|-----------------------------------------------------------------

E|--4--3--4--3--4--3--------4--3--4--3--6--4--3--1--
B|--------------------1-----------------------------
G|--------------------------------------------------
D|--------------------------------------------------
A|--------------------------------------------------
E|--------------------------------------------------

Play Each 4x
E|--10-11-------
B|--------11----
G|-----------12-
D|--------------
A|--------------
E|--------------

E|--------------------------
B|--13-11-------------------
G|--------8--10-13-12-------
D|--------------------13-10-
A|--------------------------
E|--------------------------

E|--------------------------
B|--4--3--------4--3--6-----
G|--------0--3-----------5--
D|--------------------------
A|--------------------------
E|--------------------------

E|--
B|--
G|--
D|--
A|--
E|--

Paste any tab in acousterr's tab maker and we'll play it !!!
Now supports capo and sound effects for vibrato/pull-off/hammer/bends/mutes etc !!! Checkout help section
tabs and chords, guitar tabs, music transcription, music technology, deep learning, music information retrieval, transcribe into tabs & chords, chordify, music renditions, songsterr, reverbnation, tabulature, bollywood chords, ultimate guitar, yousician, guitar lessons, acoustic guitar, electric guitar, guitar tuner, 911 tabs