Bass Tabs for Amain Bass

(/) Slide Up  (\) Slide Down  (h) Hammer On  (p) Pull Off  (b) Bend (r) Release (v) Vibrato (x) Muted

Tabs for Song : 

Intro
A|-----1--3--------------
D|--0--------0-----------
G|-----------------------
C|-----------------------
F|-----------------------

A|--------------------------------------------------------------------------------------------------------------------------------2--3-----------------------------------------
D|--0--0-----0--0--3--2--------0--2--3--3-----3--3-----------------3--------------------------3--------------------------------0--------0--0-----------------------------------
G|-----------------------3--2-----------------------3--2--------0-----0--0-----0--0-----3--2-----0--2--4--4-----4--4-----4--0--------------------------------------------------
C|--------------------------------------------------------2--0-----------------------0--------------------------------2--------------------------------------------------------
F|-----------------------------------------------------------------------------------------------------------------------------------------------------------------------------
Amain riff
A|-----0--0--0-----0-----------3--3--3-----3-----------5--5--5-----5-----------8--8--8--------7-----
D|--0-----------0-----2--3--------------3-----7-----5-----------5-----7--8--------------7-----------
G|--------------------------------------------------------------------------------------------------
C|--------------------------------------------------------------------------------------------------
F|--------------------------------------------------------------------------------------------------
solo bass after amain riff
A|-----------------------------------------------------------------------------------------------------------------------------------------------
D|--------------------------------------------3--3--3--3--------3--3--3--3--------5--5--5--5--------5--5--5--5--------5--5--5--5--------5--------
G|--------2--2--2--2--------2--2--2--2--3-----------------3-----------------5-----------------5-----------------4-----------------4--4-----------
C|--2-----------------2--------------------------------------------------------------------------------------------------------------------0--2--
F|-----------------------------------------------------------------------------------------------------------------------------------------------

Song lyrics here
A|--
D|--
G|--
C|--
F|--

Paste any tab in acousterr's tab maker and we'll play it !!!
Now supports capo and sound effects for vibrato/pull-off/hammer/bends/mutes etc !!! Checkout help section
tabs and chords, guitar tabs, music transcription, music technology, deep learning, music information retrieval, transcribe into tabs & chords, chordify, music renditions, songsterr, reverbnation, tabulature, bollywood chords, ultimate guitar, yousician, guitar lessons, acoustic guitar, electric guitar, guitar tuner, 911 tabs