Guitar Tabs for Aitebar

(/) Slide Up  (\) Slide Down  (h) Hammer On  (p) Pull Off  (b) Bend (r) Release (v) Vibrato (x) Muted

Tabs & Chords
BPM : 144.0
Check Track 2 for Chord Positions 

    F#m                              C#m                              B                    E  
E|--------------------------------------0-----------12----11----------------------------------
B|--------------------------------------------12----------------12----------------------------
G|-----13----------------------------------13-------------------------------------------------
D|-----------------------------------11-------------------------------------------------------
A|--------------------------------------------------------------------------------------------
E|--7-----------2-----2-----2-----------------------------------------2-----7--7-----7-----12-

                                                                B                             
E|--------------------------------------------------------------------------------------------
B|--12-12-12----12----12----12----12----12-12----12-12----12-12-12----12----12-12----12----12-
G|-----------13----11----------11-------------11-------13----------------11-------------14----
D|--------------------------------------------------------------------------------------------
A|--------------------------------------------------------------------------------------------
E|--------------------------------------------------------------------------------------------

                         A                                         B                    E        
E|-----------------------------------0-----------0-----------------------------------------------
B|-----12-12-------------------------------------------------------------12----12-12-12----------
G|--13-------11----------14----14-14----14-------------14----14-------------11-------------------
D|-----------------13----------------------11----------------------13----------------------------
A|-----------------------------------------------------------------------------------------------
E|--------------------------------------------------------------------------------------0-----14-

                                              A              
E|-----------------------------0--------16-------------------
B|-----------------------------------------------------------
G|-----------------------------------------------------------
D|-----------------------------------------------------------
A|-----12----11----11----------------------------------------
E|--------7--------------7-----------0--------12----7-----0--

Guitar Tabs for Aitebar






    F#m                              C#m                              B                    E  
E|--2--------------------------------4--------------------------------2--------------------0--
B|--2--------------------------------5--------------------------------4--------------------0--
G|--2--------------------------------6--------------------------------4--------------------1--
D|--4--------------------------------6--------------------------------4--------------------2--
A|--4--------------------------------4--------------------------------2--------------------2--
E|--2--------------------------------------------------------------------------------------0--

                                                                B                             
E|--------------------------------------------------------------2-----------------------------
B|--------------------------------------------------------------4-----------------------------
G|--------------------------------------------------------------4-----------------------------
D|--------------------------------------------------------------4-----------------------------
A|--------------------------------------------------------------2-----------------------------
E|--------------------------------------------------------------------------------------------

                         A                                         B                    E        
E|-----------------------0-----------------------------------------2--------------------0--------
B|-----------------------2-----------------------------------------4--------------------0--------
G|-----------------------2-----------------------------------------4--------------------1--------
D|-----------------------2-----------------------------------------4--------------------2--------
A|-----------------------0-----------------------------------------2--------------------2--------
E|--------------------------------------------------------------------------------------0--------

                                              A              
E|--------------------------------------------0--------------
B|--------------------------------------------2--------------
G|--------------------------------------------2--------------
D|--------------------------------------------2--------------
A|--------------------------------------------0--------------
E|-----------------------------------------------------------

tabs and chords, guitar tabs, music transcription, music technology, deep learning, music information retrieval, transcribe into tabs & chords, chordify, music renditions, songsterr, reverbnation, tabulature, bollywood chords, ultimate guitar, yousician, guitar lessons, acoustic guitar, electric guitar, guitar tuner, 911 tabs