Guitar Tabs for Jab Bhe Tere Yad Aygi

(/) Slide Up  (\) Slide Down  (h) Hammer On  (p) Pull Off  (b) Bend (r) Release (v) Vibrato (x) Muted

Tabs & Chords
BPM : 125.0
Check Track 2 for Chord Positions 

    Fm                               C#                Fm                                  C# 
E|--------------------------------------------------------------------------------------------
B|--------8--9-----11----8-----9--------------------------8--9-----11----8-----9--8-----------
G|-----10-------------------------10-10----8-----10----10----------------------------10----10-
D|--10----------------------------------------------------------------------------------------
A|--------------------------------------------------------------------------------------------
E|--------------------------------------------------------------------------------------------

                Fm                   C#                      D#                   Fm             
E|-----------------------------------------------------------------------------------------------
B|-----------------------------------------------------------------------------------------------
G|--8-----10-------0-----0--------------------------------------0--------------0-----0-----------
D|--------------------------------------------8--8--11-10-------------------8--------------------
A|--------------8-----------11-11----11-11-------------------11----11----11-------11----8-----8--
E|-----------------------------------------------------------------------------------------------

                         C#                      D#                   Fm                
E|--------------------------------------------------------------------------------8-----
B|--------------------------------------------------------------------9-----------------
G|--0-----------------------------------------------0-----------------------10-------0--
D|-----------------------------11----11-10----8--------------8--------------------------
A|--------11-11----11----11----------------------11-------11----11----------------------
E|--------------------------------------------------------------------------------------

Guitar Tabs for Jab Bhe Tere Yad Aygi






    Fm                               C#                Fm                                  C# 
E|--1--------------------------------4-----------------1-----------------------------------4--
B|--1--------------------------------6-----------------1-----------------------------------6--
G|--1--------------------------------6-----------------1-----------------------------------6--
D|--3--------------------------------6-----------------3-----------------------------------6--
A|--3--------------------------------4-----------------3-----------------------------------4--
E|--1--------------------------------------------------1--------------------------------------

                Fm                   C#                      D#                   Fm             
E|--------------1--------------------4-----------------------6--------------------1--------------
B|--------------1--------------------6-----------------------8--------------------1--------------
G|--------------1--------------------6-----------------------8--------------------1--------------
D|--------------3--------------------6-----------------------8--------------------3--------------
A|--------------3--------------------4-----------------------6--------------------3--------------
E|--------------1-----------------------------------------------------------------1--------------

                         C#                      D#                   Fm                
E|-----------------------4-----------------------6--------------------1-----------------
B|-----------------------6-----------------------8--------------------1-----------------
G|-----------------------6-----------------------8--------------------1-----------------
D|-----------------------6-----------------------8--------------------3-----------------
A|-----------------------4-----------------------6--------------------3-----------------
E|--------------------------------------------------------------------1-----------------

tabs and chords, guitar tabs, music transcription, music technology, deep learning, music information retrieval, transcribe into tabs & chords, chordify, music renditions, songsterr, reverbnation, tabulature, bollywood chords, ultimate guitar, yousician, guitar lessons, acoustic guitar, electric guitar, guitar tuner, 911 tabs