Guitar Tabs for Mere Zaat Zar.e.benishan

(/) Slide Up  (\) Slide Down  (h) Hammer On  (p) Pull Off  (b) Bend (r) Release (v) Vibrato (x) Muted

Tabs & Chords
BPM : 89.0
Check Track 2 for Chord Positions 

    Dm                                                             A     Dm                   
E|--17-------------------------------------------------------------------------------------0--
B|-----------10-9-----9--10-------9--10-10-9--10----9--------0--------------------------0-----
G|-----------------10-------10-------------------------10-------------------------------------
D|--------11----------------------------------------------12-------11-------------------------
A|-----------------------------------------------------------------------12----12-12-12-------
E|--------------------------------------------------------------------------------------------

                                                                                              
E|--------------------------------------------------------------------0-----0-----------------
B|--------------0--------------------------10----11-10-10-10----------------------------------
G|-----------------------------------------------------------12----10----10----12-10-12----10-
D|--12-11-11----------------------------------------------------------------------------------
A|-----------12----11----12----12-12----12----------------------------------------------------
E|--------------------------------------------------------------------------------------------

                                     Gm                      F                    C           
E|--------------------------------------------------------------------------------------------
B|--------10----10----10----------------------------11----------------10-10-------------------
G|-----------------------------------------0--0--0-----0--0--0--------------------------------
D|--12----------------------------------------------------------------------------------------
A|-----------------------12-12-12----12-------------------------------------------------------
E|--------------------------------------------------------------13-------------13-12-12----12-

             
E|-----------
B|-----------
G|-----------
D|-----------
A|-----------
E|-----12-12-

Guitar Tabs for Mere Zaat Zar.e.benishan






    Dm                                                             A     Dm                   
E|--1--------------------------------------------------------------0-----1--------------------
B|--3--------------------------------------------------------------2-----3--------------------
G|--2--------------------------------------------------------------2-----2--------------------
D|--0--------------------------------------------------------------2-----0--------------------
A|-----------------------------------------------------------------0--------------------------
E|--------------------------------------------------------------------------------------------

                                                                                              
E|--------------------------------------------------------------------------------------------
B|--------------------------------------------------------------------------------------------
G|--------------------------------------------------------------------------------------------
D|--------------------------------------------------------------------------------------------
A|--------------------------------------------------------------------------------------------
E|--------------------------------------------------------------------------------------------

                                     Gm                      F                    C           
E|-----------------------------------3-----------------------1--------------------0-----------
B|-----------------------------------3-----------------------1--------------------1-----------
G|-----------------------------------3-----------------------2--------------------0-----------
D|-----------------------------------5-----------------------3--------------------2-----------
A|-----------------------------------5-----------------------3--------------------3-----------
E|-----------------------------------3-----------------------1--------------------------------

             
E|-----------
B|-----------
G|-----------
D|-----------
A|-----------
E|-----------

tabs and chords, guitar tabs, music transcription, music technology, deep learning, music information retrieval, transcribe into tabs & chords, chordify, music renditions, songsterr, reverbnation, tabulature, bollywood chords, ultimate guitar, yousician, guitar lessons, acoustic guitar, electric guitar, guitar tuner, 911 tabs