Guitar Tabs for Afterchrum

(/) Slide Up  (\) Slide Down  (h) Hammer On  (p) Pull Off  (b) Bend (r) Release (v) Vibrato

Tabs for Song : 

Song lyrics here
---------------------------------------------
E|-----------------------------------------------------------------------------------------------------------------------------------
B|------------------5h-6h-8p-6p5------5h-6h-8/15--------------5h-6h-8p-6p5------5h-6h-8/17--------------5h-6h-8p-6p5------5h-6h-8/20-
G|------------5h7-----------------7---------------------5h7-----------------7---------------------5h7-----------------7--------------
D|-----------------------------------------------------------------------------------------------------------------------------------
A|-----5--8--------------------------------------5--8--------------------------------------5--8--------------------------------------
D|-----------------------------------------------------------------------------------------------------------------------------------


Song lyrics here
E|---8/22\8---5h-8h-6h5-----------------------------------------------------------------------------------------------------------------
B|------------------------8h-5h-6h-8/13h10h11h13\-3h-5p-3/-8\-3/----------------2h-3h5---6/13-6--5--6--5---6\15-6--5---6/17-15-18-17-18b-
G|---------------------------------------------------------------7\-6\-3p-2h-3h---------------------------------------------------------
D|--------------------------------------------------------------------------------------------------------------------------------------
A|--------------------------------------------------------------------------------------------------------------------------------------
D|--------------------------------------------------------------------------------------------------------------------------------------

Add more lines by placing cursor below and adding notes


E|--17-16-15-13-15-16-17-16-15-13-15-16-17-13----------------------13h17-13-12-10-12-13-12-10----10-12-13-10----------------------10h13-
B|--------------------------------------------15----------------15----------------------------11-------------11----------------11-------
G|-----------------------------------------------14----------14-------------------------------------------------10----------10----------
D|--------------------------------------------------15----15-------------------------------------------------------12----12-------------
A|-----------------------------------------------------17-------------------------------------------------------------13----------------
D|--------------------------------------------------------------------------------------------------------------------------------------

E|--18-17-16-15-16-17-18-17-16-15\10h13p10----------------------13-18-18-17-15-13-15-17-18-17-15-13----------------------13-18/22----------------13-16-17-
B|-----------------------------------------11----------------15-------------------------------------15----------------15----------------14-15-17----------
G|--------------------------------------------10\7--------15-------------------------------------------15----------15--------------9/14-------------------
D|---------------------------------------------------8/15-------------------------------------------------15----15----------------------------------------
A|-----------------------------------------------------------------------------------------------------------17-------------------------------------------
D|--------------------------------------------------------------------------------------------------------------------------------------------------------

E|--10-13-10----10-15-10----10-13-10----10-15-10----10-13-10----10-15-10----10-13-10----10-13-10----10-15-10----10-13-10----10-15-10----10-13-10----10-15-10----10-13-10----
B|-----------13----------13----------13----------13----------13----------13----------13----------13----------13----------13----------13----------13----------13----------13-
G|--------------------------------------------------------------------------------------------------------------------------------------------------------------------------
D|--------------------------------------------------------------------------------------------------------------------------------------------------------------------------
A|--------------------------------------------------------------------------------------------------------------------------------------------------------------------------
D|--------------------------------------------------------------------------------------------------------------------------------------------------------------------------

E|--15-13-12-13-17-13-12-13-15-13-12-13-17-13-12-13-15-13-12-13-17-13-12-13-15-13-12-13-
B|--------------------------------------------------------------------------------------
G|--------------------------------------------------------------------------------------
D|--------------------------------------------------------------------------------------
A|--------------------------------------------------------------------------------------
D|--------------------------------------------------------------------------------------

E|--18-17-15----------------------------------------------------------------------------------
B|-----------18-17-15-------------------------------------------------------------------15b17-
G|--------------------14-12-10-------------------------------------------------12-14-16-------
D|-----------------------------14-12-10-------------------------------13-14-16----------------
A|--------------------------------------15-14-12/18/-9\18\9--14-15-17-------------------------
D|--------------------------------------------------------------------------------------------

tabs and chords, guitar tabs, music transcription, music technology, deep learning, music information retrieval, transcribe into tabs & chords, chordify, music renditions, songsterr, reverbnation, tabulature, bollywood chords, ultimate guitar, yousician, guitar lessons, acoustic guitar, electric guitar, guitar tuner, 911 tabs