Guitar Tabs for Afterlife Live Version

(/) Slide Up  (\) Slide Down  (h) Hammer On  (p) Pull Off  (b) Bend (r) Release (v) Vibrato

Tabs for Song : 

Song lyrics here
E|--------------------------------------------------------------------------------------------------------------------------------
B|---------------5h-6h-8p-6p5------5h-6h-8/15--------------5h-6h-8p-6p5------5h-6h-8/17--------------5h-6h-8p-6p5------5h-6h-8/20-
G|---------5h7-----------------7---------------------5h7-----------------7---------------------5h7-----------------7--------------
D|--------------------------------------------------------------------------------------------------------------------------------
A|--5--8--------------------------------------5--8--------------------------------------5--8--------------------------------------
D|--------------------------------------------------------------------------------------------------------------------------------

E|---8/13\-8h-6h-8h-6h-5h---------------------------------------------------------------------------------------------------------------
B|------------------------8h-5h-6h-8/13h10h11h13\-3h-5p-3/-8\-3/----------------2h-3h5---6/13\6--5--6--5---6/15\6--5---6/17-15-18-17-18b
G|---------------------------------------------------------------7\-6\-3h-2h-3h---------------------------------------------------------
D|--------------------------------------------------------------------------------------------------------------------------------------
A|--------------------------------------------------------------------------------------------------------------------------------------
D|--------------------------------------------------------------------------------------------------------------------------------------

E|--17-16-15-13-15-16-17-16-15-13-15-16-17-13----------------------13-17-
B|--------------------------------------------15----------------15-------
G|-----------------------------------------------14----------14----------
D|--------------------------------------------------15----15-------------
A|-----------------------------------------------------17----------------
D|-----------------------------------------------------------------------

E|--13-12-10-12-13-12-10----10-12-13-10----------------------10-12-13-
B|-----------------------11-------------11----------------11----------
G|-----------------------------------------10----------10-------------
D|--------------------------------------------12----12----------------
A|-----------------------------------------------13-------------------
D|--------------------------------------------------------------------

E|--18-17-16-15-16-17-18-17-15\10h13p10----------------------13-18-
B|--------------------------------------11----------------15-------
G|-----------------------------------------10\7--------15----------
D|------------------------------------------------8/15-------------
A|-----------------------------------------------------------------
D|-----------------------------------------------------------------

E|--18-17-15-13-15-17-18-13----------------------13-18/22----------------13-17-18-
B|--------------------------15----------------15----------------14-15-17----------
G|-----------------------------15----------15--------------9/14-------------------
D|--------------------------------15----15----------------------------------------
A|-----------------------------------17-------------------------------------------
D|--------------------------------------------------------------------------------

E|--10-13-10----10-15-10----10-13-10----10-15-10----10-13-10----10-15-10----10-13-10----
B|-----------13----------13----------13----------13----------13----------13----------13-
G|--------------------------------------------------------------------------------------
D|--------------------------------------------------------------------------------------
A|--------------------------------------------------------------------------------------
D|--------------------------------------------------------------------------------------

E|--10-13-10----10-15-10----10-13-10----10-15-10----10-13-10----10-15-10----10-13-10----
B|-----------13----------13----------13----------13----------13----------13----------13-
G|--------------------------------------------------------------------------------------
D|--------------------------------------------------------------------------------------
A|--------------------------------------------------------------------------------------
D|--------------------------------------------------------------------------------------

E|--13-15-13-12-13-17-13-12-13-15-13-12-13-17-13-12-13-15-13-12-13-17-13-12-13-
B|-----------------------------------------------------------------------------
G|-----------------------------------------------------------------------------
D|-----------------------------------------------------------------------------
A|-----------------------------------------------------------------------------
D|-----------------------------------------------------------------------------

E|--18-17-15----------17-15-13----------------------------------------------------------
B|-----------18-16-14----------15-14-13-------------------------------------------11-13b
G|--------------------------------------15-14-12-------------------------10-12-14--------
D|-----------------------------------------------15-14-12\11/22\11-12-14----------------
A|--------------------------------------------------------------------------------------
D|--------------------------------------------------------------------------------------



Song lyrics here
E|--
B|--
G|--
D|--
A|--
D|--

Add more lines by placing cursor below and adding notes
tabs and chords, guitar tabs, music contests, music covers, songsterr, reverbnation, renditions, tabulature, bollywood chords, ultimate guitar, yousician, guitar lessons, torrins, fender, gibson, acoustic guitar, electric guitar, youtube covers, gootar, guitar tuner, A-Z tabs, 911 tabs